VGJam Tabs Wild Arms
Wild Arms
"Intro" - Guitar tab
Platform(s):PlayStation
Tabbed by:smoo
Last modified:1999-07-08
Print it:Original file (.TXT)
Hear it:MIDI file
#----------------------------------PLEASE NOTE--------------------------------#
#This file is the author's own work and represents their interpretation of the#
#song. You may only use this file for private study, scholarship, or research.#
#-----------------------------------------------------------------------------#
#-- File created with Instab - http://www.pconline.com/~smcarey/instab.html --#
#-----------------------------------------------------------------------------#

Title: wild arms opening theme
Transcribed by: smoo (http://www.cjas.org/~smoo/tabs.htm)
-|---------8----|---------8----|---------8-------------|-8----|---------------
-|--------------|--------------|-----------------------|------|---------------
-|--------------|--------------|-----------------------|-9----|---------------
-|-0---7--------|-----7--------|-0---7-------0---------|------|---------------
-|--------------|--------------|-----------------------|------|---------------
-|--------------|-8------------|------------------8----|------|---------------
                                                                              

-|--------------|--------0-----|--------1-----|--------0------|---------------
-|--------3-----|------1---1---|------3---3---|------1---1----|---------------
-|------3---3---|----0---------|----2---------|----0----------|---------------
-|----3---------|--------------|-0------------|---------------|---------------
-|-1------------|-3------------|--------------|-3-------------|---------------
-|--------------|--------------|--------------|---------------|---------------
                                                                              

-|--------------|--------0-----|--------1-----|-1----|------------------------
-|--------3-----|------1---1---|------3---3---|-3----|------------------------
-|------3---3---|----0---------|----2---------|-2----|------------------------
-|----3---------|--------------|-0------------|-0----|------------------------
-|-1------------|-3------------|--------------|------|------------------------
-|--------------|--------------|--------------|------|------------------------
                                                       start whistling..      

-|-----1-----1---|-----0-----0---|-----1-----1----|---------------------------
-|-----3-----3---|-----1-----1---|-----3-----3----|---------------------------
-|-0-2-----------|---------------|-0-2------------|---------------------------
-|--------0------|-0-2-----------|--------0-------|---------------------------
-|---------------|--------3------|----------------|---------------------------
-|---------------|---------------|----------------|---------------------------
                                  this measure x2                             

-|-----1-----1---|-----3-----3---|-----5-----5----|---------------------------
-|-----3-----3---|---------------|----------------|---------------------------
-|-0-2-----------|-----4-----4---|-----6-----6----|---------------------------
-|--------0------|-5------0------|----------------|---------------------------
-|---------------|---------------|-0--------------|---------------------------
-|---------------|---------------|--------0-------|---------------------------
                                  this measure x2                             

-|-----1-----1---|-----0-----0---|----------------|-----0-----0---|-----------
-|-----3-----3---|-----1-----1---|-----3-----3----|-----1-----1---|-----------
-|-0-2-----------|---------------|-----3-----3----|---------------|-----------
-|--------0------|-0-2-----------|----------------|--------2------|-----------
-|---------------|--------3------|-1--------------|-0-------------|-----------
-|---------------|---------------|--------1-------|---------------|-----------
                  this measure x2                  this measure x2            

-|---------------|---------------|-----1-----1---|-----1---|------------------
-|----3-----3----|-3-------------|-----3-----3---|-----3---|------------------
-|----3-----3----|-3-------------|-0-2-----------|-0-2-----|------------------
-|---------------|---------------|--------0------|---------|------------------
-|-1-------------|-1-------------|---------------|---------|------------------
-|-------1-------|---------------|---------------|---------|------------------
                                  this measure x3                             

-|-------0--1-----5--3----0----------|-------0--1----3--0---------------|-----
-|----3----------------------1--3----|----3------------------1----------|-----
-|-2---------------------------------|-2------------------------0--2----|-----
-|-----------------------------------|----------------------------------|-----
-|-----------------------------------|----------------------------------|-----
-|-----------------------------------|----------------------------------|-----
                                                                              

-|-------------------------------------------|-----10--12--13--10-------12--|-
-|-------------10-----13--12----10--8--10----|-10-------------------10------|-
-|-----10--12--------------------------------|------------------------------|-
-|-10----------------------------------------|------------------------------|-
-|-------------------------------------------|------------------------------|-
-|-------------------------------------------|------------------------------|-
                                                                              

-|-10--8--10-----------------|----------------------|-------------------------
-|------------10-------13----|-------------8--------|-------------------------
-|-----------------10--------|-7--9--10--------7----|-------------------------
-|---------------------------|----------------------|-------------------------
-|---------------------------|----------------------|-------------------------
-|---------------------------|----------------------|-------------------------
                                                                              

-|-----1-----1---|-----1-----1---|-----1-----1---|-1----|---------------------
-|-----3-----3---|-----3-----3---|-----3-----3---|-3----|---------------------
-|-0-2-----------|-0-2-----------|-0-2-----------|-2----|---------------------
-|--------0------|--------0------|--------0------|-0----|---------------------
-|---------------|---------------|---------------|------|---------------------
-|---------------|---------------|---------------|------|---------------------
                                                                              



VGJam Tabs Wild Arms - "Intro"
Tabs database last modified Tuesday, 01-Nov-2016 19:14:53 UTC.
Copyright © 1999 - 2016 VideoGameJam.com. All rights reserved.