VGJam Tabs Wild Arms
Wild Arms
"Milama Village theme" - Bass tab
Platform(s):PlayStation
Tabbed by:BassD
Last modified:2002-02-02
Print it:Original file (.TXT)
Playstation
Wild Arms
Milama Village Theme (BassLine)
Composed by Michiko Naruke
Tabbed by:BassD

This nice little bass line can also be heard in Port Timney.
  This line is really fun to play.

Intro (bass and drum only)
G|--------------------------------------------------------|
D|--------------------------------------------------------|
A|-4----4-6--6--6-8----6-8----6-4----4-6--6--6-8----6-8*--|
E|----4-------6------8------8------4-------6------8-------|

Verse (with flute)
G|(x3)---------------------------|
D|-------------------------------|
A|-4----4-6--6--6-8----8-6----6--|
E|----4-------6------8------6----|

G|(x1)-----------------------|
D|---------------------------|
A|-4----4-6--6--6-8----6-8*--|
E|----4-------6------8-------|

(Verse with flute)
(Then back to intro)
Repeat an infinitum

Questions, info, corrections...
rancid_ska@hotmail.com

VGJam Tabs Wild Arms - "Milama Village theme"
Tabs database last modified Tuesday, 01-Nov-2016 19:14:53 UTC.
Copyright © 1999 - 2016 VideoGameJam.com. All rights reserved.