VGJam Tabs WWF SmackDown!
WWF SmackDown!
"Sixteen wrestler themes" - Guitar tab
Platform(s):PlayStation
Tabbed by:Mogg Dogg
Last modified:2000-05-27
Print it:Original file (.TXT)
WWF Wrestler Themes
Transcribed by Mogg Dogg
Email - jmogg@home.com

1. Cactus Jack
2. Kurt Angle
3. Kane
4. Tazz
5. Acolytes
6. New Age Outlaws
7. The Rock
8. HHH
9. Test
10. The Corporation (McMahons' music)
11. Stone Cold Steve Austin
12. Big Bossman
13. Dudley Boyz
14. The Radicalz
15. Chris Benoit
16. Smackdown Theme


h = hammer on
p = pull off
x = hit w/ finger on string but not holding string down (you know...)
^ = bend up
~ = vibrato
\ = slide down
/ = slide up
* = alternatate (cross) pick [fast]
pm= palm mute
...= extended


1. Cactus Jack (intro + main riff)
e -------------------------------
B -------------------------------
G -------------------------------
D -----------x--------------x-7--
A -7p5-----2-x-2--7p5-----2-x-5--
E -----7p5-0-x-0------7p5-0-x----

e ----------------------
B ----------------------
G ----------------------
D ----------------------
A -2-2--5--4-----2-2----
E -0-0-3--2--2p0-0-0----


2. Kurt Angle (main riff)
e ----------------------
B ----------------------
G ----------------------
D ----------------------
A -2-5--5-7--10-9--9-7--
E -0-3--3-5--8--7--7-5--

e -----------------------
B -----------------------
G -----------------------
D -----------------------
A -2-5--5-7--10-9--12-9--
E -0-3--3-5--8--7--10-7--


3. Kane (intro + main riff)
e ---------------------
B ---------------------
G ---------------------
D -10--11--9---8-------
A -8---9---7---6-------
E ---------------------

e ---------------------
B ---------------------
G ---------------------
D -6-------------------
A -4--7--3-------------
E ----5--1-------------


4. Tazz (beep + main riff)
e ---------------------
B -5-5-5-5~------------
G ---------------------
D ---------------------
A ---------------------
E ---------------------

e ---------------------------------
B ---------------------------------
G ---------------------------------
D ---------------------------------
A -7-------5-------3-------3---2---
E ---0-0-0---0-0-0---0-0-0---0---0-
     pm...   pm...   pm...   


5. Acolytes (main riff + high-pitched noise)
e -------------------------
B -------------------------
G -------------------------
D -------------------------
A -2--2-3--3-2--2-3-3-3-2--
E -0--0-1--1-0--0-1-1-1-0--

e -17^18\--------------
B ---------------------
G ---------------------
D ---------------------
A ---------------------
E ---------------------


6. New Age Outlaws (intro + main riff)
e ---------------------
B ---------------------
G ---------------------
D ---------------------
A -2-2----2------------
E -0-0-3~-0------------

e ----------------------------------
B ----------------------------------
G ----------------------------------
D ---------x---------x-5-x---x------
A -2-2-5-2-x-2-2-5-2-x-3-x-5-x-2-2--
E -0-0-3-0-x-0-0-3-0-x---x-3-x-0-0--


7. The Rock (main riff)
e --------------------------------
B --------------------------------
G --------------------------------
D --------------------------------
A -4------------2--2-1-2-1-2---4--
E -2--2h4-4h5-5\0------------4\2--


8. HHH (intro + main riff)
e ---------------------
B ---------------------
G ---------------------
D ---------------------
A -2-2-2--2-2-2--------
E -0-0-0--0-0-0--------
   pm...  pm...
e ----------------------
B ----------------------
G ----------------------
D -----------------5-4--
G -2-2-2-5-4-2-2-2-3-2--
E -0-0-0-3-2-0-0-0------
   pm...     pm...
e ---------------------
B ---------------------
G ---------------------
D ---------------------
A -2--5-7/2--7-5/2-----
E -0--3-5/0--5-3/0-----


9. Test (intro + main riff)
e -0/12*12*12*12\0-----
B ---------------------
G ---------------------
D ---------------------
A ---------------------
E ---------------------

e --------------------------
B --------------------------
G --------------------------
D --------------------------
A -2-2--3-2-2---2-2--3-2-2--
E -0-0--1-0-0---0-0--1-0-0--


10. The Corporation (main riff)
e ---------------------
B ---------------------
G ---------------------
D ---5-----------------
A -7-3-4-5-4-5-4-2-----
E -5---2-3-2-3-2-0-----

e ---------------------
B ---------------------
G ---------------------
D ---5--7-5------------
A -7-3--5-3-7-5-4------
E -5--------5-3-2------


11. Stone Cold Steve Austin
e ---------------------
B ---------------------
G ---------------------
D ---------------------
A -2-2-3-3-2-2---------
E -0-0-1-1-0-0---------

e ---------------------
B ---------------------
G ---------------------
D ---------------------
A -2-2-3-3-2-2-3-3--5--
E -0-0-1-1-0-0-1-1--3--


12. Big Bossman (main riff)
e ------------------------
B ------------------------
G ------------------------
D -x-x-4-5-4-4-x-x--------
A -x-x-2-3-2-2-x-x-4-4-3--
E -x-x---------x-x-2-2-1--


13. Dudley Boyz (intro + main riff)
e -12/-----------------
B ---------------------
G ---------------------
D ---------------------
A ---------------------
E ---------------------

e ----------------------------
B ----------------------------
G ----------------------------
D -------9-9-9---------9-9-9--
A -2-2-2-7-7-7-2-2-2-2-7-7-7--
E -0-0-0-------0-0-0-0--------

e -10------------------ 
B -13^15---------------
G ---------------------
D ---------------------
A ---------------------
E ---------------------

e ---------------------
B ---------------------
G ---------------------
D ---------------------
A -2--3--4-5-----------
E -0--1--2-3-----------


14. The Radicalz (main riff)
e ----------------------
B ----------------------
G ----------------------
D ----------------------
A -2--7-8---2--7-8------
E -0--5-6---0--5-6------


15. Chris Benoit (intro)
e ---------------------
B ---------------------
G ---------------------
D ---------9-----------
A -2-2-2-2-7-2-2-2-2-2-
E -0-0-0-0---0-0-0-0-0-
   pm.....   pm.....


16. Smackdown (intro + main riff)
e ---------------------
B ---------------------
G ---------------------
D ---------------------
A -7-7-7-7-7-7-7-7-----
E -5-5-5-5-5-5-5-5-----
   pm.............
e ---------------------
B ---------------------
G ---------------------
D -----------5-4-2-----
A -4-4-4-4-4-3-2-0-----
E -2-2-2-2-2-----------
   pm.......

======================================

Solos not included (they're to hard to transcribe). Not all of these songs have correct guitar tuning (some of them are tuned down as much as a whole step), but they are correct as a stardard-tuned guitar can play it. These riffs repeat, so listen to the song for the intervals and timing.

I don't know how much of these are on the "Smackdown" game for PSX, but here's the tabs of many wrestlers in the WWF.

Like? Don't like? Wrong tab? Missing something? Want something?
Email me! - jmogg@home.com
VGJam Tabs WWF SmackDown! - "Sixteen wrestler themes"
Tabs database last modified Tuesday, 01-Nov-2016 19:14:53 UTC.
Copyright © 1999 - 2016 VideoGameJam.com. All rights reserved.