VGJam Tabs WWF War Zone
WWF War Zone
"Cactus Jack's theme" - Guitar tab
Platform(s):PlayStation
Tabbed by:Ryan C. Reynolds
Last modified:1999-07-07
Print it:Original file (.TXT)
Hear it:MIDI file
#----------------------------------PLEASE NOTE--------------------------------#
#This file is the author's own work and represents their interpretation of the#
#song. You may only use this file for private study, scholarship, or research.#
#-----------------------------------------------------------------------------#
#-- File created with Instab - http://www.pconline.com/~smcarey/instab.html --#
#-----------------------------------------------------------------------------#

Author/Artist: WWF
Title: Cactus Jack Theme Music
Transcribed by: Ryan C. Reynolds
Email: morbol@aol.com

I have been planning on tabbing this music for quite some time.
After seeing Foley's last match, I felt compelled to finish and distribute
this for the fans of wrestling. I will do more wrestling tabs so let me know if 
you have any requests. Bang Bang!

This is the intro:

-----------------------------------------------2------------------------------
-----------------------------------------------3------------------------------
--9--7------------------9--7----------------0--2------------------------------
--9--7--5--2--2----2----9--7--5--2--2----2--2--0----------7\------------------
--7--5--5--2--2----2----7--5--5--2--2----2--x-------------9\------------------
--------3--0--0----0----------3--0--0----0--3----------7----------------------
 Rhythm A x4           Lead fill A1         Lead fill A2                      

----------------------|--------------------|----------------------------------
----------3-----3-----|--3-3-5-------------|----------------------------------
----------4-----4-----|--------3-2-0-3b1/2-|--3b1/2---------------------------
--2----5--0--4--0--2--|--------------------|-------------2~-------------------
--2----5-----5-----2--|--------------------|-------1-0------------------------
--0----3-----2-----0--|--------------------|-----------3----------------------
 Lead fill A3     Lead fill A4       Rhythm B x2                              

-3-----3~------|---10-10-----------|--------3-----3---------------------------
----5----------|----------11\------|--------5-----5---------------------------
---------------|-------------------|-2---5--0--4--0--2------------------------
---------------|-------------------|-2---5-----5-----2------------------------
---------------|-------------------|-0---3-----2-----0------------------------
---------------|-------------------|------------------------------------------
 Lead Fill B1                  Lead Fill B2                                   

-5--5-3----------------------|-2-0-2-5----------------------------------------
--------4-2---5-3------------|-3-1-3-5-3-1-1----------------------------------
------------5-----5-2-0------|------------------------------------------------
------------------------2----|---------------2~-------------------------------
--------------------------4~-|------------------------------------------------
-----------------------------|------------------------------------------------
 Repeat Rhythm A x 2 with these two lead fills:                               

--12-15-12---12-----------|---------------------------------------------------
-------`--------15-12-12~-|8---5-5~------------------------------------------
--------------------------|---------------------------------------------------
--------------------------|---------------------------------------------------
--------------------------|---------------------------------------------------
--------------------------|---------------------------------------------------
 Rhythm C X1                                                                  

------------------------------------------------------------------------------
---------------------------------------2-2-2----------------------------------
------2----4-4-4-4-4-4-4-4-4-4-4-4-4-4-3-3-3----------------------------------
-5----2----4-4-4-4-4-4-4-4-4-4-4-4-4-4-0-0-0----------------------------------
-5----0----2-2-2-2-2-2-2-2-2-2-2-2-2-2----------------------------------------
-3----------------------------------------------------------------------------
 Rhythm D x2                                                                  

----------------|---------------------|---------------------------------------
---------5-3----|--------------5-3----|---------------------------------------
---------2-2----|---------2----4-2----|-2---------2---------------------------
-2----2----2-5-2|-2----5--2----2-0-5-2|-2----5----2----5----------------------
-2----2----0-5-2|-2----5--0--------5-2|-0----5----0----5----------------------
-0----0------3-0|-0----3-----------3-0|------3---------3----------------------
 Ending 1                      Ending 2                                       

-----------2---------------|-------2------------------------------------------
-----------3----5--3-------|-------3------------------------------------------
-2---------2----4--2-------|-2-----2------------------------------------------
-2----5----0----2--0--5--2-|-2--5--0------------------------------------------
-0----5---------------5--2-|-0--5---------------------------------------------
------3---------------3--0-|----3---------------------------------------------
                                                                              


VGJam Tabs WWF War Zone - "Cactus Jack's theme"
Tabs database last modified Tuesday, 01-Nov-2016 19:14:53 UTC.
Copyright © 1999 - 2016 VideoGameJam.com. All rights reserved.