VGJam Tabs WWF War Zone
WWF War Zone
""Stone Cold" Steve Austin's theme" - Guitar tab
Platform(s):PlayStation
Tabbed by:Deezer
Last modified:1999-07-15
Print it:Original file (.TXT)
Hear it:MIDI file
#----------------------------------PLEASE NOTE---------------------------------#
#This file is the author's own work and represents their interpretation of the #
#song. You may only use this file for private study, scholarship, or research. #
#------------------------------------------------------------------------------#


WWF War Zone (Sony PlayStation)
"Steve Austin"

Originally composed by: ?
------------------------------------------------------------------------------
Tabbed by: Deezer (deezer@usa.net)
For http://www.kontek.net/vgjam/
------------------------------------------------------------------------------

Cool song. I tabbed this off a MIDI, so I'm not 100% sure about all the
bends... If I ever hear the song off the game, I'll make the necessary
corrections, if any. Anybody want to tab out the awesome bass line? Or the
sirens? ;)


Symbols used:
 b = Bend


Standard Tuning: (low to high) EADGBe


  E5                           E5/B         E5        G5
-------------------------------------------------------------------------
-----------------12b------------------------12----12--8--8---------------
--9--9------------9b-------------------------9-----9--5--5---------------
--9--9------------9b-----------9-------------9-----9--5--5---------------
--7--7-------------------------7-----------------------------------------
-------------------------------7-----------------------------------------
                 1/4 bend

  E5               G5
-----------------|----------------------------------------------|
-----------------|----------------------------------------------|
--9--9--9--9---9-|-12----12----12----12----12----12----12----12-|
--9--9--9--9---9-|-12----12----12----12----12----12----12----12-|
--7--7--7--7---7-|-10----10----10----10----10----10----10----10-|
-----------------|----------------------------------------------|
                  \_________________  Repeat __________________/


   G5
|--15----15----15----15----15----15----15----15--|
|------------------------------------------------|
|--12----12----12----12----12----12----12----12--|
|--12----12----12----12----12----12----12----12--|
|--10----10----10----10----10----10----10----10--|
|------------------------------------------------|
 \___________________ Repeat ___________________/


First guitar tacit.
A second guitar plays this:


  E5->B5                                  C5
|---------------------------------------------|\
|---------------------------------------------| \
|---------------------------------------------|  \
|-----9-------9-------9-------9----9----9-10--|   \
|--7--9----7--9----7--9----7--9----9----9-10--|    \
|--7-------7-------7-------7------------------|     \
|                                             | Repeat
|  E5->B5                          C5    B5   |      /
|---------------------------------------------|     /
|---------------------------------------------|    /
|---------------------------------------------|   /
|-----9-------9-------9-------9----10----9----|  /
|--7--9----7--9----7--9----7--9----10----9----| /
|--7-------7-------7-------7------------------|/


Now the first guitar comes back, playing the notes on the high E and B
strings here:


  E5->B5                                C5
|-----7-------7-------7-------7----7-----8----|\
|--5-------5-------5-------5------------------| \
|---------------------------------------------|  \
|-----9-------9-------9-------9----9----10----|   \
|--7--9----7--9----7--9----7--9----9----10----|    \
|--7-------7-------7-------7------------------|     \
|                                             | Repeat
|  E5->B5                          C5    B5   |      /
|-----7-------7-------7-------7-----8----7----|     /
|--5-------5-------5-------5------------------|    /
|---------------------------------------------|   /
|-----9-------9-------9-------9----10----9----|  /
|--7--9----7--9----7--9----7--9----10----9----| /
|--7-------7-------7-------7------------------|/


Second guitar tacit.


  Gbsus2  
------------------------------------------------
--12----12----12----12----12----12----12----12--
--11----11----11----11----11----11----11----11--
--11----11----11----11----11----11----11----11--
------------------------------------------------
------------------------------------------------


After that, repeat a few times from where you're strumming G5.


Last revised: 7/15/99

VGJam Tabs WWF War Zone - ""Stone Cold" Steve Austin's theme"
Tabs database last modified Tuesday, 01-Nov-2016 19:14:53 UTC.
Copyright © 1999 - 2016 VideoGameJam.com. All rights reserved.