VGJam Tabs Silent Hill 2
Silent Hill 2
"Theme of Laura" - Guitar tab
Platform(s):PlayStation 2
Composed by:Akira Yamaoka
Soundtrack:Silent Hill 2 Original Soundtracks [KMCA-120] (track 01)
Tabbed by:gonjarea
Last modified:2002-02-22
Print it:Original file (.TXT)
Guitar-SH2 "Theme of Laura"
For best viewing use Times New Roman size 9
This document contains an entire guitar transcription for "Theme of Laura" 
from the Silent Hill 2.
Tabbed by gonjarea (xshredx@hotmail.com) send emails for questions comments.
Note: This transcription has been tabbed from an MP3 of the song sent to 
me via email. Accuracy of this tablature
is good, but not professional. It isn't the best, enjoy. 
numbers in parenteses( ) are harmonics.
-----------------------------------------------------------

intro                                            h    h   h
------------------------------------------------(12)-(7)-(12)-----------------------------------7-7-5---7-----
----------------------------------------------------------------3-5-5-5--7-7-7---8-7-8-7--------------5---5---
--------------------------------------------------------------------------------------------------------------
---2-2-2---4-4-4---5-5--7-4-5-4---2-2-2--4-4-4---5-5--7-4-5-4----2-2-2---4-4-4---5-5-7-4-5-4------------------
---3-3-3---5-5-5---7-7------------3-3-3--5-5-5---7-7-------------3-3-3---5-5-5---7-7--------------------------
--------------------------------------------------------------------------------------------------------------

melody                                                          h          h            h         h    h   h   h
---------------------------------------------------------------(12)-----------------------------------(12)----(12)---
--------------------------------------------------------------------------(7)--------------------(5)------(7)--------
--------------7-/-9---------------------------------------7----------------7-/-9-------(5)-----------------7-/-9-----
-------2-/-5---------9-\-7---7-/-9------------9-7------------9------2-/-5---------9-\-7--7-/-9---------9-7-------9---
----3---------------------------------10-9-10-----7-/-10--------3------------------------------10-9-10---------------
---------------------------------------------------------------------------------------------------------------------

transition play 4x              h       h       h     h       h      h	
----------------2----------|---(12)---------------------------------(12)------------------------------------------------------12------
----------------0----------|-----------(7)-------------------(7)---------------------8-7-8-7-5-\-0-------------8-7-8-7-5-/-10----12---
----------------0----------|-------------------(5)---(5)------------------------------------------------------------------------------
--2-2---2-2-2--------------|------------------------------------------------5-/-7-7-------------------5-/-7-7-------------------------
--2-2---2-2-2------4-3-2---|----------------------------------------------------------------------------------------------------------
--0-0---0-0-0--------------|----------------------------------------------------------------------------------------------------------


----------------------------------8------------------------------------8-------------------------------8---------------------
----10-----------------------8-10---8-8-7-8-10-----------------8-10-------8-8-7-8-8-------------8-10------8-8-7-8-10-12------
-12----12-11-9-------5-7-/-9----------------------9----5-7-/-9--------------------------5-7-/-9--------------------------9---
--------------------7--------------------------------7--------------------------------7--------------------------------------
-----------------------------------------------------------------------------------------------------------------------------
-----------------------------------------------------------------------------------------------------------------------------

                                   Play this 4x
--------------------------12-10---|-----------------------------------------------------------------------|---
--10-12---10-12---12-10-----------|---8--8----7--7---8--10------------------8-8-7-8-------8---------------|---
--------9-------9-----------------|-------------------------9---8--8-9-8--------------9-9---9---8-8-6-8---|---
----------------------------------|-----------------------------------------------------------------------|---
----------------------------------|---7-------------------------------------7-----------------------------|---
----------------------------------|-----------10------------8---7---------------------8---------7---------|---

                                           play this 2x
-------17----17-15-14----14-15-17------------|-----------------------------------------|---
----------17----------17----------17-17------|-----------------------------------------|---
---9-8----------------------------------16---|-------------------------7---------------|---
---------------------------------------------|---2-2-2---4-4-4---5--5----5-7-5-4-5-4---|---
---------------------------------------------|---3-3-3---5-5-5---7--7------------------|---
---------------------------------------------|-----------------------------------------|---


--12-14-15-15-----------14-12-------12-14-12--------------12-14-15-15------14-15-17-----15-14------14-15-14-------
---------------------------------15------------------------------------------------------------17-----------------
----------------------------------------7-------------------------------------------------------7-----------------
---2--2--2-----------4--4--4------5--5----5-7-5-4-5-4------2--2--2-------4--4--4---------5--5-------5-7-5-4-5-4---
---3--3--3-----------5--5--5------7--7---------------------3--3--3-------5--5--5---------7--7---------------------
------------------------------------------------------------------------------------------------------------------

play melody  play transition
------------|---------------|----------------------------2----
------------|---------------|----------------------------0----
------------|---------------|----------------------------0----
------------|---------------|------2--2------2--2-2-----------
------------|---------------|------2--2------2--2-2-----------
------------|---------------|------0--0------0--0-0-----------


VGJam Tabs Silent Hill 2 - "Theme of Laura"
Tabs database last modified Tuesday, 01-Nov-2016 19:14:53 UTC.
Copyright © 1999 - 2016 VideoGameJam.com. All rights reserved.