VGJam Tabs Xenogears
Xenogears
"Faraway Promise" - Guitar tab
Platform(s):PlayStation
Composed by:Yasunori Mitsuda
Soundtrack:Xenogears Original Soundtrack (track D1-06)
Tabbed by:Adam Estabrook
Last modified:2000-07-30
Print it:Original file (.TXT)
Hear it:MIDI file
Song Title: Faraway Promise (music box)
Game: Xenogears
Composer: Yasunori Mitsuda

Tabbed By: Adam Estabrook 
email: adam2015@secondimpact.com
Note: Feel free to correct, comment, or critacize my work.

**Listen to song for rhythm**

**intro**
e|--------------------------------13-12----------------------------------
B|----------------------13-15-----------13------------13-12----13--------
G|-12----10-12-10-12-14--------12----------14----------------------12----
D|----10---------------------------------------10-15--------12--------10-
A|-----------------------------------------------------------------------
E|-----------------------------------------------------------------------

**First theme**

e|-15-15-15-15-13-12----------13-12-12-----------------------------------
B|-------------------15-13-15--------------13-15-13----------------------
G|--------------------------------------12----------12-------------------
D|-----------------------------------------------------------------------
A|-----------------------------------------------------------------------
E|-----------------------------------------------------------------------

e|-15-15--20-20-19-17-17-15-15--------15---------------------------------
B|------------------------------15-17------12-13-12----------------------
G|--------------------------------------------------12-------------------
D|-----------------------------------------------------------------------
A|-----------------------------------------------------------------------
E|-----------------------------------------------------------------------

e|-15-15-15-15-13-12----------13-12-12-----------------------------------
B|-------------------15-13-15--------------13-15-13----------------------
G|--------------------------------------12----------12-------------------
D|-----------------------------------------------------------------------
A|-----------------------------------------------------------------------
E|-----------------------------------------------------------------------

e|----------15-15-15-12--------------------------------------------------
B|-13-12-13-------------15--13-12-13-------------------------------------
G|-------------------------------------12--------------------------------
D|----------------------------------------10-12-14-----------------------
A|-----------------------------------------------------------------------
E|-----------------------------------------------------------------------

**Second theme**

e|----20-19-20-19-17-15-15--------15-15-12-10----------------------------
B|-17-----------------------15-13----------------------------------------
G|-----------------------------------------------------------------------
D|-----------------------------------------------------------------------
A|-----------------------------------------------------------------------
E|-----------------------------------------------------------------------

e|--20-19-20-19-17-15-15------20-19-20-22-20-----19-17-15-15-------------
B|-----------------------15-------------------17-------------------------
G|-----------------------------------------------------------------------
D|-----------------------------------------------------------------------
A|-----------------------------------------------------------------------
E|-----------------------------------------------------------------------

e|--------15-15-12----------------13-15-----------12---------------------12-15-20-
B|-15-13-----------15--13-12-13---------13-----15----13------------13-15----------
G|-----------------------------------------14-------------10-12-14----------------
D|--------------------------------------------------------------------------------
A|--------------------------------------------------------------------------------
E|--------------------------------------------------------------------------------
VGJam Tabs Xenogears - "Faraway Promise"
Tabs database last modified Tuesday, 01-Nov-2016 19:14:53 UTC.
Copyright © 1999 - 2016 VideoGameJam.com. All rights reserved.