VGJam Tabs Xenogears
Xenogears
"Fuse" - Guitar tab
Platform(s):PlayStation
Composed by:Yasunori Mitsuda
Soundtrack:Xenogears Original Soundtrack (track D1-14)
Tabbed by:Thomas McManus
Last modified:2001-05-01
Print it:Original file (.TXT)
Hear it:MIDI file
Song: Fuse
Game: Xenogears
Composed by: Yasunori Mitsuda
Tabbed by: Thomas McManus (tom0015@hotmail.com)

                       *
e--------------------------------------------------------------------
B-7~~~~--------------------------------------------------------------
G--------------------------------------------------------------------
D--------------------------------------------------------------------
A-------9~~~~~~~~~~~-7-9~~~~~~~~~~~-7-9~~~~~~~~~~~-7-9~~~~~~~~~~~----
E--------------------------------------------------------------------

e--------------------------------------------------------------------
B--------------------------------------------------------------------
G--------------------------------------------------------------------
D-------6-7-6~~---7-6~~---7-6~~----------------------6-7-6~~---7-6~~-
A-7-9~----------9-------9-------9~--------------7-9~---------9-------
E----------------------------------9~~~~~~~~~~-----------------------

e--------------------------------------------------------------------
B--------------------------------------------------------------------
G---------------6~~~~~~~~-9~-7~-6~~~~~~~~~~-8~~~~~~~~~~-9p8-9p8-9-8--
D---7-6~~-6-7-9------------------------------------------------------
A-9------------------------------------------------------------------
E--------------------------------------------------------------------

e---------------------------------------------------------------------
B---------------------------------------------------------6~~~~~~~~~~-
G-7~~~~-9-6~~~~~~~~~~-8~~~~~~~~~~-9p8-9p8-9-8-7~~~~-7-8-9-------------
D---------------------------------------------------------------------
A---------------------------------------------------------------------
E---------------------------------------------------------------------

then repeat, starting from the *
VGJam Tabs Xenogears - "Fuse"
Tabs database last modified Tuesday, 01-Nov-2016 19:14:53 UTC.
Copyright © 1999 - 2016 VideoGameJam.com. All rights reserved.