VGJam Tabs Xenogears
Xenogears
"The Wounded Shall Advance into the Light" - Guitar tab
Platform(s):PlayStation
Composed by:Yasunori Mitsuda
Soundtrack:Xenogears Original Soundtrack (track D1-22)
Tabbed by:Thomas McManus
Last modified:2001-05-01
Print it:Original file (.TXT)
Hear it:MIDI file
Song: The Wounded Shall Advance into the Light
Game: Xenogears
Composed by: Yasunori Mitsuda
Tabbed by: Thomas McManus (tom0015@hotmail.com)

Drop-D tuning DADGBe

This is the Nisan sisters' hymn

e-------------------------------------------------------------------
B-------------------------------------------------------------------
G-------------------------------------------------------------------
D---------------------------------------------0~~~~-----------------
A-----------------------0-2---------------0---------3~~-2-0~~~~~~---
D-0-5~~~~-5~~~~-4~~~~-5-----5-5~~-4-2-4-5---0-----------------------

e-------------------------------------------------------------------
B-------------------------------------------------------------------
G-------------------------------------------------------------------
D---------------------2-2~~~~~~~-1---1~~~~~~------------2~~~~~-4-5--
A---------1~~~~~-4~~~--------------4--------------2~~~~-------------
D-6~~~~~~-----------------------------------------------------------

e-------------------------------------------------------------------
B-------------------------------------------------------1-1~~~~~~---
G-------0-2-0~~~-----------------------------0-2-0~-2-4-------------
D-4~~~~----------4-2-0~~~~~~-2~~~~-4-5-4~~~~------------------------
A-------------------------------------------------------------------
D-------------------------------------------------------------------

e-------------------------------------------------------------------
B----3~~~~~~~-3~~~-1~~~~~~~~-1~~~----------------1-0----------0-----
G-4~------------------------------4~~~~~~~~~~--2-----2-0~~~-2-------
D-------------------------------------------------------------------
A-------------------------------------------------------------------
D-------------------------------------------------------------------

e--------------------------------------2~~~-3-2-0-------------------
B-1~~~~~~~~~~~------------------------------------3-3~~~~~~-1-------
G--------------4~~~~~~~~~~~~--2~~~~~~~------------------------4~~~~~
D-------------------------------------------------------------------
A-------------------------------------------------------------------
D-------------------------------------------------------------------

e-------------------------------------------------------------------
B---1-0-------0-3-3~~~~~~~~~~~~~-1----------------------------------
G-2-----2-0-2----------------------4~~~~~~~~~~~~~~~~~~~~~~~~~~~~~~--
D-------------------------------------------------------------------
A-------------------------------------------------------------------
D-------------------------------------------------------------------
VGJam Tabs Xenogears - "The Wounded Shall Advance into the Light"
Tabs database last modified Tuesday, 01-Nov-2016 19:14:53 UTC.
Copyright © 1999 - 2016 VideoGameJam.com. All rights reserved.