VGJam Tabs Xenogears
Xenogears
"A Ship of Sleep and Regret (Billy's theme)" - Guitar tab
Platform(s):PlayStation
Composed by:Yasunori Mitsuda
Soundtrack:Xenogears Original Soundtrack (track D2-01)
Tabbed by:Thomas McManus
Last modified:2000-01-13
Print it:Original file (.TXT)
Hear it:MIDI file
Billy's Theme
Xenogears
Tabbed by Grahf(Anthony Harris)
rolfe@fidnet.com

/ = slide up

|-----------------------12--11---9----8---9---11------------|
|-------9----7----9-------------------------------9--11--13-|
|--6--------------------------------------------------------|
|-----------------------------------------------------------|
|-----------------------------------------------------------|
|-----------------------------------------------------------|


|--9--11---12----12---------16---16---14--------------------|
|---------------------12-------------------14---13---14/16--|
|-----------------------------------------------------------|
|-----------------------------------------------------------|
|-----------------------------------------------------------|
|-----------------------------------------------------------|

|-----19--19---21---19---17--------------16--17---19--------|
|-17--------------------------17----19-----------------19---|
|-----------------------------------------------------------|
|-----------------------------------------------------------|
|-----------------------------------------------------------|
|-----------------------------------------------------------|

|--12---16---16---17----16---14---12---14---12--16--19---21-|
|-----------------------------------------------------------|
|-----------------------------------------------------------|
|-----------------------------------------------------------|
|-----------------------------------------------------------|
|-----------------------------------------------------------|

|-23---21---19---17----16---14---12---14--16----------16----|
|-----------------------------------------------16----------|
|-----------------------------------------------------------|
|-----------------------------------------------------------|
|-----------------------------------------------------------|
|-----------------------------------------------------------|

then it repeats itself.  this is just the main part.

VGJam Tabs Xenogears - "A Ship of Sleep and Regret (Billy's theme)"
Tabs database last modified Tuesday, 01-Nov-2016 19:14:53 UTC.
Copyright © 1999 - 2016 VideoGameJam.com. All rights reserved.