VGJam Tabs Xenogears
Xenogears
"June Mermaid" - Guitar tab
Platform(s):PlayStation
Composed by:Yasunori Mitsuda
Soundtrack:Xenogears Original Soundtrack (track D2-04)
Tabbed by:Paul Hasas
Last modified:2002-09-04
Print it:Original file (.TXT)
Hear it:MIDI file
Title: June Mermaid
Game: Xenogears
Composer: Yasunori Mitsuda

Transcribed Paul Hasas
Email: bigbadw4lf@hotmail.com


h = hammer-on
p = pull-off
/ = slide up
\ = slide down


GUITAR 1 - LEAD

e ||------------12----10-12-13--|--------------------------|
B ||---------------13-----------|-13-------11----10-11-----|
G ||-*----10-12-----------------|----------------------12--|
D ||----------------------------|--------------------------|
A ||-*--------------------------|--------------------------|
E ||----------------------------|--------------------------|


|--------------------------------||
|-10-------10\8h10p8-------------||
|----10-12------------------9--*-||
|--------------------------------||
|------------------------------*-||
|--------------------------------||


|-------------------------15--|-13p12--------------------|
|-------------11-13-13h15-----|--------------------------|
|----10-12-14-----------------|-------14-----------------|
|-----------------------------|--------------------------|
|-----------------------------|--------------------------|
|-----------------------------|--------------------------|


|--------------------------|--------------------------|
|-------------13-15-15-----|-------------13----15-16--|
|----12-14-15----------15--|-15----14-----------------|
|--------------------------|--------------------------|
|--------------------------|--------------------------|
|--------------------------|--------------------------|



|-------------------12-13--|-13-----------------------|
|-15----------15-----------|--------------------------|
|--------------------------|--------------------------|
|--------------------------|--------------------------|
|--------------------------|--------------------------|
|--------------------------|--------------------------|



|-12-----------------------|--------------------------||
|--------------------------|--------------------------||
|--------------------------|--------------------------||
|--------------------------|--------------------------||
|--------------------------|--------------------------||
|--------------------------|--------------------------|| fin





GUITAR 2 - BACKUP

e ||----------0-----1-----------|--1-----3-----------0-----|
B ||----------------------------|--------------------------|
G ||-*-----2-----2-----2-----3--|-----3-----3-----2-----2--|
D ||----0-----------------0-----|--------------0-----------|
A ||-*--------------------------|--------------------------|
E ||----------------------------|--------------------------|


|--------------0-------------||
|--3-----------------3-------||
|-----2-----3-----3-----3--*-||
|--------0-------------------||
|--------------------------*-||
|----------------------------||


|--------------------------|--------1-----0-----------|
|--------------------------|--------------------3-----|
|--------------------------|-----2-----2-----2-----2--|
|-----3-----------0--------|--0-----------------------|
|--1-----------------------|--------------------------|
|--------------3-----------|--------------------------|


|-----------3--3-----------|-----------------------2--|
|--------4-----------3-----|--------6-----------3-----|
|-----3-----------3--------|-----5-----5-----5--------|
|--1-----------2-----------|--3-----------4-----------|
|--------------------------|--------------------------|
|--------------------------|--------------------------|


|--6-----5-----------------|--6-----------------------|
|--7--------8--------9-----|--8-----------------------|
|--7--7-----------9--------|--9-----------6--7--9-10--|
|--5-----------6-----------|--7-----7--9--------------|
|--------------------------|--0--8--------------------|
|--------------------------|--------------------------|


|-----12-------------------|--------------------------||
|----10--------------------|--------------------------||
|---9----------------------|--------------------------||
|-11-----------------------|--------------------------||
|--------------------------|--------------------------||
|--------------------------|--------------------------|| fin

VGJam Tabs Xenogears - "June Mermaid"
Tabs database last modified Tuesday, 01-Nov-2016 19:14:53 UTC.
Copyright © 1999 - 2016 VideoGameJam.com. All rights reserved.