VGJam Tabs Xenogears
Xenogears
"Tears of the Stars, Hearts of the People" - Guitar tab
Platform(s):PlayStation
Composed by:Yasunori Mitsuda
Soundtrack:Xenogears Original Soundtrack (track D2-08)
Tabbed by:Shingo Beyeler
Last modified:2002-06-17
Print it:Original file (.TXT)
Game: Xenogears
Platform: PSX
Song Title: Tears Of The Stars, Hearts Of The People (Theme of Sadness)
Tabbed By: Shingo Beyeler

Intro:
e|--------------|--------------|--------------|--------------|
B|--------------|--------------|--------------|--------------|
G|--7-----7-----|--7--5--7--8--|--7-----7-----|--7--5--8--10-|
D|-----0-----0--|--------------|-----0-----0--|--------------|
A|--------------|--------------|--------------|--------------|
E|--------------|--------------|--------------|--------------|


Part I:
e|-5-3-5-6-8-10-5~-|-1-3~---8~---5~---|-1-0-3~---10~-|-8--10--5~-|
B|-----------------|------------------|--------------|-----------|
G|-----------------|------------------|--------------|-----------|
D|-----------------|------------------|--------------|-----------|
A|-----------------|------------------|--------------|-----------|
E|-----------------|------------------|--------------|-----------|

e|-8~--5--8--10~-|-5~-----------|
B|---------------|--------------|
G|---------------|--------------|
D|---------------|--------------|
A|---------------|--------------|
E|---------------|--------------|


Part II:
e|-3-5-6-8-10~-|-13-8~---6--5--3~-|
B|-------------|------------------|
G|-------------|------------------|
D|-------------|------------------|
A|-------------|------------------|
E|-------------|------------------|


Song Structure:
Intro
Part I (x2)
Part II(x2)
Intro
Part I (x2)
Part II(x2)
Repeat, fade. 

VGJam Tabs Xenogears - "Tears of the Stars, Hearts of the People"
Tabs database last modified Tuesday, 01-Nov-2016 19:14:53 UTC.
Copyright © 1999 - 2016 VideoGameJam.com. All rights reserved.