VGJam Tabs Xenogears
Xenogears
"Flight" - Guitar tab
Platform(s):PlayStation
Composed by:Yasunori Mitsuda
Soundtrack:Xenogears Original Soundtrack (track D2-09)
Tabbed by:Adam Estabrook
Last modified:2000-07-30
Print it:Original file (.TXT)
Hear it:MIDI file
Song Title: Flight
Game: Xenogears
Composer: Yasunori Mitsuda

Tabbed By: Adam Estabrook 
email: adam2015@secondimpact.com
Note: Feel free to correct, comment, or critacize my work.

**Listen to song for rhythm**

**Intro**

(Play each note 16 times)
e|-----------------
B|-----------------
G|-5---------------
D|---6---5---------
A|-----8-----------
E|-----------------

e|--------------------------------------------------------------------------
B|--------------------------------------------------------------------------
G|----8-----12-----10--8-10-12----------------------------------------------
D|-10----10-----10-------------12-------------------------------------------
A|--------------------------------------------------------------------------
E|--------------------------------------------------------------------------

e|--------------------------------------------------------------------------
B|--------------------------------------------------------------------------
G|----8-----12-----10--8-10-12-13-15-17-15-20-18----------------------------
D|-10----10-----10----------------------------------------------------------
A|--------------------------------------------------------------------------
E|--------------------------------------------------------------------------


**Main Theme**
e|--------------------------------------------------------------------------
B|------------------9-11----------------------------------------------------
G|-5-8-----8--10-12------12-8-5-8-10--10-12-8-----------8-6-----------------
D|-------8------------------------------------6-8-10-10-----8---------------
A|--------------------------------------------------------------------------
E|--------------------------------------------------------------------------

e|--------------------------------------------------------------------------
B|--------------------------------------------------------------------------
G|----------13-12-10-8-6-8-----------10-8--5-6-8-10----------------8-8-6----
D|-8-6-8-6--------------------6-8-10----------------10-8-10-6--5-6-------8--
A|--------------------------------------------------------------------------
E|--------------------------------------------------------------------------

e|--------------------------------------------------------------------------
B|--------------------------------------------------------------------------
G|--------10-8--5-6-8-10----------------8-13-15-15--------------------------
D|-6-8-10----------------10-8-10-6--5-6-------------------------------------
A|--------------------------------------------------------------------------
E|--------------------------------------------------------------------------

**Interlude**
e|---------------------------------------
B|---------------------------------------
G|---------------------------------------
D|-10--8-10-11--11-13-6----6-8--6-5------
A|-----------------------8----------8-6--
E|---------------------------------------

Song Order:
intro
main theme 2x
interlude
main theme 2x
interlude
main theme til song fades out
VGJam Tabs Xenogears - "Flight"
Tabs database last modified Tuesday, 01-Nov-2016 19:14:53 UTC.
Copyright © 1999 - 2016 VideoGameJam.com. All rights reserved.