VGJam Tabs Silent Hill 2
Silent Hill 2
"Angel's Thanatos" - Guitar tab
Platform(s):PlayStation 2
Composed by:Akira Yamaoka
Soundtrack:Silent Hill 2 Original Soundtracks [KMCA-120] (track 12)
Tabbed by:Deezer
Last modified:2011-04-18
Print it:Original file (.TXT)
#----------------------------------PLEASE NOTE---------------------------------#
#This file is the author's own work and represents their interpretation of the #
#song. You may only use this file for private study, scholarship, or research. #
#------------------------------------------------------------------------------#


Silent Hill 2 (PlayStation 2)
"Angel's Thanatos"

Originally composed by: Akira Yamaoka
------------------------------------------------------------------------------
Tabbed by: Deezer (deezer AT videogamejam DOT com)
For http://www.videogamejam.com
------------------------------------------------------------------------------

Symbols used:
   x = muted string
 <#> = natural harmonic at fret #
   v = vibrato

Tuning: Standard, 7-string (BEADGBe)

Crank up the distortion! If you don't have a 7-string guitar, you can try
playing the power chords up an octave, or, if you have a set of heavy-gauge
strings, try tuning the 6th and 5th strings down to B and E and ignore the A
string in the tab.


Riff A:
=======

(The beautiful noise after the C5 chords varies slightly each time Riff A is
played. Ad lib with muted strings, harmonics at the third fret [mostly on
the G and D strings] and open strings [mostly the G string]. The first four
bars are tabbed below as an example.)


        C5
E||--------------------------|--------------------------|
B||--------------------------|--------------------------|
G||----------------------<3>-|-----------------------0--|
D||--------------------x-----|--------------------x-----|
A||-----3--3--3--3-----x-----|-----3--3--3--3-----x-----|
E||-----3--3--3--3-----x-----|-----3--3--3--3-----x-----|
B||-----1--1--1--1-----------|-----1--1--1--1-----------|

   --------------------------|--------------------------||
   --------------------------|--------------------------||
   ----------------------<3>-|--------------------------||
   --------------------x-----|-----------------x--x--x--||
   -----3--3--3--3-----x-----|-----3--3--3--3--x--x--x--||
   -----3--3--3--3-----x-----|-----3--3--3--3--x--x--x--||
   -----1--1--1--1-----------|-----1--1--1--1-----------|| x2


Riff B:
=======

    B5
E|------------------------|-------------------------|
B|------------------------|-------------------------|
G|------------------------|-------------------------|
D|------------------------|-------------------------|
A|------------------------|-------------------------|
E|--2----2--2--2----2--2--|--2----2--2--2--2--2--2--|
B|--0----0--0--0----0--0--|--0----0--0--0--0--0--0--|

  --------------------------|--------------------------|
  --------------------------|--------------------------|
  --------------------------|--------------------------|
  --------------------------|--------------------------|
  --------------------------|--------------------------|
  --2--2--2--2--2--2--2--2--|--2--2--2--2--2--2--2--2--|
  --0--0--0--0--0--0--0--0--|--0--0--0--0--0--0--0--0--|


Then:
Play Riff A x2
Play Riff B


Riff C:
=======

[Two guitars tabbed for one.]

E|---------------------------|---------------------------|
B|---------------------------|---------------------------|
G|--------2-----------2------|--------2-----------2------|
D|--0--0-----1v----0-----1v--|-----0-----1v----0-----1v--|
A|---------------------------|---------------------------|
E|--------5-----------5------|--------5-----------5------|
B|--3--3-----4v----3-----4v--|-----3-----4v----3-----4v--|

  ---------------------------|---------------------------|
  ---------------------------|---------------------------|
  --------2-----------2------|--------2-----------2------|
  -----0-----1v----0-----1v--|-----0-----1v----0-----1v--|
  ---------------------------|---------------------------|
  --------5-----------5------|--------5-----------5------|
  -----3-----4v----3-----4v--|-----3-----4v----3-----4v--|

  ---------------------------|---------------------------|
  ---------------------------|---------------------------|
  --------2-----------2------|--------2-----------2------|
  -----0-----1v----0-----1v--|-----0-----1v----0-----1v--|
  ---------------------------|---------------------------|
  --------5-----------5------|--------5-----------5------|
  -----3-----4v----3-----4v--|-----3-----4v----3-----4v--|

  ---------------------------|--------------------------|
  ---------------------------|--------------------------|
  --------2-----------2------|--------2-----------2-----|
  -----0-----1v----0-----1v--|-----0-----1v----0-----1--|
  ---------------------------|--------------------------|
  --------5-----------5------|--------5-----------5-----|
  -----3-----4v----3-----4v--|-----3-----4v----3-----4--|

Then:
Play Riff A x2
Play Riff B

Then:

    B5
E|-------------------|-------------------|
B|-------------------|-------------------|
G|-------------------|-------------------|
D|-------------------|-------------------|
A|-------------------|-------------------|
E|--2----------------|-------------------|
B|--0----------------|-------------------|

    let ring..............................

  -------------------|-------------------|
  -------------------|-------------------|
  -------------------|-------------------|
  -------------------|-------------------|
  -------------------|-------------------|
  -------------------|-------------------|
  -------------------|-------------------|
  .......................................

       C5
  --------------------------|--------------------------|
  --------------------------|--------------------------|
  ----------------------<3>-|----------------------<3>-|
  --------------------x-----|--------------------x-----|
  --x--3--3--3--3-----x-----|-----3--3--3--3-----x-----|
  --x--3--3--3--3-----x-----|-----3--3--3--3-----x-----|
  --x--1--1--1--1-----------|-----1--1--1--1-----------|

  --------------------------|--------------------------|
  --------------------------|--------------------------|
  -----------------------0--|--------------------------|
  --------------------x-----|-----------------x--x--x--|
  -----3--3--3--3-----x-----|-----3--3--3--3--x--x--x--|
  -----3--3--3--3-----x-----|-----3--3--3--3--x--x--x--|
  -----1--1--1--1-----------|-----1--1--1--1-----------|

Then:
Play Riff A x2
Play Riff B

Then:

  B5
E|-------------------|
B|-------------------|
G|-------------------|
D|-------------------|
A|-------------------|
E|--2----------------|
B|--0----------------|

    let ring until the end.
    

Revision history:
 03/28/2002 - First draft.
 04/18/2011 - Tabbed for 7-string guitar. Fixed first two notes in Riff C.

VGJam Tabs Silent Hill 2 - "Angel's Thanatos"
Tabs database last modified Tuesday, 01-Nov-2016 19:14:53 UTC.
Copyright © 1999 - 2016 VideoGameJam.com. All rights reserved.