VGJam Tabs Xenogears
Xenogears
"Wings" - Guitar tab
Platform(s):PlayStation
Composed by:Yasunori Mitsuda
Soundtrack:Xenogears Original Soundtrack (track D2-10)
Tabbed by:Adam Estabrook
Last modified:2000-07-30
Print it:Original file (.TXT)
Hear it:MIDI file
Song Title: Wings
Game: Xenogears
Composer: Yasunori Mitsuda

Tabbed By: Adam Estabrook
email: adam2015@secondimpact.com
Note: Feel free to correct, comment, or critacize my work.

**Listen to song for rhythm**

**Intro**
                                       * ^ = hammer then pull off *
e|-----------------------------------------------------------------------
B|-----------------------------------------------------------------------
G|-9-8-------------------------------------------------------------------
D|-----9--7-9-11-9---------------------9-------------9-------------------
A|-----------------7--9-11-7--9-11-7-----9^11^9--7-9---------------------
E|-----------------------------------------------------------------------

e|-------------------------------------------
B|-------------------------------------------
G|-9-8---------------------------------------
D|-----9--7-9-11-9---------------------------
A|-----------------7--9-11-7--9-11-7-6-7-----
E|-------------------------------------------

**Main Theme**

e|-----------------------------------------------------------------------
B|-----------------------------------------------------------------------
G|--------8-9--8^9^8--6-4-4-----------8-9--8^9^8--6-4-4---9-8-9-11-9-----
D|---6-9-------------------------6-9-------------------------------------
A|-7---------------------------7-----------------------------------------
E|-----------------------------------------------------------------------

e|-----------------------------------------------------------------------
B|-----------------------------------------------------------------------
G|---8-6^8^6--4-4---4-4-6------------9-9-8-9~----------------------------
D|-6----------------------4--------7-------------------------------------
A|--------------------------7-6-7----------------------------------------
E|-----------------------------------------------------------------------
VGJam Tabs Xenogears - "Wings"
Tabs database last modified Tuesday, 01-Nov-2016 19:14:53 UTC.
Copyright © 1999 - 2016 VideoGameJam.com. All rights reserved.