VGJam Tabs Xenogears
Xenogears
"The One Who Is Torn Apart" - Guitar tab
Platform(s):PlayStation
Composed by:Yasunori Mitsuda
Soundtrack:Xenogears Original Soundtrack (track D2-13)
Tabbed by:Matthias Lambrecht
Last modified:1999-05-06
Print it:Original file (.TXT)
Hear it:MIDI file
Well, I just thought, I took so many tabs from this page that it would
be fair if I contributed something, too.  Here's the main melody of Id's
theme (Xenogears), including the first bass line.  

It's maybe a bit messy, but if you listen to the song, I think you'll
know how to play it.


E|------------------------------------|------------------------------------|
B|------------------------------------|----13------------------------------|
G|-15-15-------13-13~~~~~~~~~---------|-15---------------------------------|
D|-------15-15------------------------|-------15-15~~~~~~~~~~~~~-----------|
A|------------------------------------|------------------------------------|
E|------------------------------------|------------------------------------|

E|------------------------------------|------------------------------------|
B|------------------------------------|------------------------------------|
G|------------------------------------|------------------------------------|
D|-------6-6~~~~----------------------|------------------------------------|
A|-6-8-9---------9-8-6-8~~~~~---------|------------------------------------|
E|------------------------------------|------------------------------------|


E|------------------------------------|------------------------------------|
B|------------------------------------|----13------------------------------|
G|-15-15-------13-13~~~~~~~~~---------|-15---------------------------------|
D|-------15-15------------------------|-------15-15~~~~~~~~~~~~~-----------|
A|------------------------------------|------------------------------------|
E|------------------------------------|------------------------------------|

E|------------------------------------|------------------------------------|
B|------------------------------------|------------------------------------|
G|-8~-6-5------5~~-6~~~~~~~-----------|------------------------------------|
D|--------6---------------------------|------------------------------------|
A|----------8~~-----------------------|------------------------------------|
E|------------------------------------|------------------------------------|


E|------------------------------------|------------------------------------|
B|------------------------------------|----13------------------------------|
G|-15-15-------13-13~~~~~~~~~---------|-15---------------------------------|
D|-------15-15------------------------|-------15-15~~~~~~~~~~~~~-----------|
A|------------------------------------|------------------------------------|
E|------------------------------------|------------------------------------|

E|------------------------------------|------------------------------------|
B|------------------------------------|------------------------------------|
G|------------------------------------|------------------------------------|
D|-----6------------------------------|------------------------------------|
A|-8-9---6-9-8---6--------------------|------------------------------------|
E|-------------9---8~~-9~~~~~~--------|------------------------------------|


E|------------------------------------|------------------------------------|
B|------------------------------------|----13------------------------------|
G|-15-15-------13-13~~~~~~~~~---------|-15---------------------------------|
D|-------15-15------------------------|-------15-15~~~~~~~~~~~~~-----------|
A|------------------------------------|------------------------------------|
E|------------------------------------|------------------------------------|

E|------------------------------------|------------------------------------|
B|------------------------------------|------------------------------------|
G|-5-5-6---5--------------------------|------------------------------------|
D|-------6----------------------------|------------------------------------|
A|-----------8~~~~~~~~~~~~~-----------|------------------------------------|
E|------------------------------------|------------------------------------|

See you,
Id

(aka Matthias Lambrecht)
http://www.ff8webrpg.handshake.de

VGJam Tabs Xenogears - "The One Who Is Torn Apart"
Tabs database last modified Tuesday, 01-Nov-2016 19:14:53 UTC.
Copyright © 1999 - 2016 VideoGameJam.com. All rights reserved.