VGJam Tabs Super Mario Galaxy
Super Mario Galaxy
"Comet Observatory" - Guitar tab
Platform(s):Wii
Composed by:Koji Kondo, Mahito Yokota
Tabbed by:Deezer
Last modified:2007-12-24
Date added:2007-12-24
Print it:Original file (.TXT)
#----------------------------------PLEASE NOTE---------------------------------#
#This file is the author's own work and represents their interpretation of the #
#song. You may only use this file for private study, scholarship, or research. #
#------------------------------------------------------------------------------#

Super Mario Galaxy (Wii)
"Comet Observatory"

Originally composed by: Mahito Yokota, Koji Kondo
------------------------------------------------------------------------------
Tabbed by: Deezer (deezer AT videogamejam DOT com)
For http://www.videogamejam.com
------------------------------------------------------------------------------


Standard tuning: (low to high) EADGBe


Intro:
======

|--12------------|--14------------|--15------------|--17------------|
|--14------------|--15------------|--17------------|--19------------|
|----------------|----------------|----------------|----------------|
|----------------|----------------|----------------|----------------|
|----------------|----------------|----------------|----------------|
|----------------|----------------|----------------|----------------|
|                                                                   |
|-------17---17--|-------17---17--|-------17---17--|-------17---17--|
|----------------|----------------|----------------|----------------|
|----------------|----------------|----------------|----------------|
|----------------|----------------|----------------|----------------|
|----------------|----------------|----------------|----------------|
|----------------|----------------|----------------|----------------|


|--12------------|--14------------|--15------------|--17------------|
|--14------------|--15------------|--17------------|--19------------|
|----------------|----------------|----------------|----------------|
|----------------|----------------|----------------|----------------|
|----------------|----------------|----------------|----------------|
|----------------|----------------|----------------|----------------|
|                                                                   |
|-------17---17--|-------17---17--|-------17---17--|--17------------|
|----------------|----------------|----------------|----------------|
|----------------|----------------|----------------|----------------|
|----------------|----------------|----------------|----------------|
|----------------|----------------|----------------|----------------|
|----------------|----------------|----------------|----------------|


Part 1:
=======

----------14----------|--------------------|------------------|
------------------14--|--17----15----------|--14----------15--|
------14--------------|----------------15--|--------16--------|
--16------------------|--------------------|------------------|
----------------------|--------------------|------------------|
----------------------|--------------------|------------------|

----------------|--------------------|--------------------|------------------|
----------------|--15----14----------|--15----14----------|------------------|
----------------|--------------------|--------------------|--16----------16--|
--14------------|----------------17--|----------------17--|--------15--------|
----------------|--------------------|--------------------|------------------|
----------------|--------------------|--------------------|------------------|

----------------|----------14----------|--------------------|
----------------|------------------14--|--17----15----------|
--14------------|------14--------------|----------------15--|
----------------|--16------------------|--------------------|
----------------|----------------------|--------------------|
----------------|----------------------|--------------------|

----------17----------|--17----15--------|--15----14----------|
------15----------15--|------------------|--------------------|
--16------------------|------------------|----------------14--|
----------------------|------------------|--------------------|
----------------------|------------------|--------------------|
----------------------|------------------|--------------------|

--14----------------|----------------|
--------17------14--|--15------------|
--------------------|----------------|
--------------------|----------------|
--------------------|----------------|
--------------------|----------------|

Repeat Part 1.


Part 2:
=======

--17--------------|--17----------21--|--17------------|----------------|
--------------17--|--------17--------|----------------|----------------|
--------19--------|------------------|----------------|--19------------|
------------------|------------------|----------------|----------------|
------------------|------------------|----------------|----------------|
------------------|------------------|----------------|----------------|

--17--------------|--17----------21--|--17--------24--|--21------------|
--------------17--|--------17--------|----------------|----------------|
--------19--------|------------------|----------------|----------------|
------------------|------------------|----------------|----------------|
------------------|------------------|----------------|----------------|
------------------|------------------|----------------|----------------|

--17--------------|--17----------21--|--17------------|----------------|
--------------17--|--------17--------|----------------|----------------|
--------19--------|--------------18--|----------------|--19------------|
--19--------------|--19--------------|--19------------|----------------|
--------17----19--|--------19--------|----------------|--17------------|
------------------|------------------|----------------|----------------|

----------------|----------------|----------------|----------------|
----------------|----------------|----------------|--17------------|
--16------------|--18------------|--19------------|----------------|
----------------|----------------|----------------|--14------------|
--14------------|--16------------|--17------------|----------------|
----------------|----------------|----------------|----------------|

Repeat from beginning.


Last modified: 12/24/2007

VGJam Tabs Super Mario Galaxy - "Comet Observatory"
Tabs database last modified Tuesday, 01-Nov-2016 19:14:53 UTC.
Copyright © 1999 - 2016 VideoGameJam.com. All rights reserved.