VGJam Tabs Perfect Selection Dracula Battle
Perfect Selection Dracula Battle
"Op.13" - Bass tab
Platform(s):Other
Arranged by:Naoto Shibata
Soundtrack:Perfect Selection Dracula Battle [KICA-1145] (track 06)
Tabbed by:ultrajari2k
Last modified:2007-11-14
Date added:2008-03-02
Print it:Original file (.TXT)
Op. 13

Key: A

Standard tuning (EADG)

I didn't accurately note the timing, but at least I divided the bars :) Listen to the song for the timing, it's nothing too complex

Verse:
-------------|----------|-------------|------------
-7-5-------5-|----------|-7-5---------|------------
-----8-7-5---|----------|-----8-7-5-3-|-2----------
-------------|5-555-555-|-------------|--0---------


--------------|-----------|-----------------
-7-5---------5|-----------|----2------------
------8-7-5---|-----------|-2---------------
--------------|-5-555-555-|-----------------


Verse 2:
--------------|----------------------------
--------------|----------------------------
----------5-3-|---1-11111--1-11111---------
-5-3-1-0------|----------------------------x2

Bridge to chorus
--------|----------------------------------
--------|--7-5-----------------------------
-0-0-0-0|------7-5-3-2---------------------
--------|----------------------------------

Chorus (chord progression)
A-G-F-E-D-G-C-E
A-G-F-E-D-E-F-G

-------------|------------|----|---------------
----s7-5---5-|---s3-2---2-|----|-----1-2-------
0-7------5---|-3------3---|5---|-3-5-----------
-------------|1-----------|---3|-----------0---


-------------|---------------|------|-----------
----s7-5---5-|-----s3-2----2-|------|-----------
0-7------5---|---3-------3---|-5----|-----------
-------------|-1-------------|----0-|-1--3------

Bridge

-----|--------------|------|-----------------
-----|--------------|------|-----------------
0--3-|5-67-10--7h10-|-0--3-|-5--67-----------
-----|--------------|------|--------0--------


-----|-------------|------|------------------
-----|-------------|------|------------------
0--3-|5-67-10-7h10-|-0--3-|--5-6-7-----------
-----|-------------|------|--------0---------

Verse & Verse 2

Chorus

Solo

---------------|---------------------------
---------------|---------------------------
8-7-----5-7----|-8-7-5-7-------------------
----000-----000|----------0000------------- repeat a bunch of times, then:


solo fill

---------------|-----------------------
---------------|-----------------------
8-7-----5-7----|-8-10--7-8--5-7--3-2---
----000-----000|-----------------------


Chorus

Bridge - Same as before but before going back to the verse riff:

-------------|-----------------------------
-------------|-----------------------------
--5--6--7--3-|-0---------------------------
-------------|-----------------------------

Verse 1

Solo till fade

VGJam Tabs Perfect Selection Dracula Battle - "Op.13"
Tabs database last modified Thursday, 17-Apr-2014 20:21:29 CDT.
Copyright © 1999 - 2014 VideoGameJam.com. All rights reserved.