VGJam Tabs Dynasty Warriors 4
Dynasty Warriors 4
"In Full Bloom" - Guitar tab
Platform(s):Multi-platformPlayStation 2Xbox
Composed by:MASA, Kenji Nakajo, Yasuhiro Misawa, Michihiko Shichi, Mahito Yakota
Soundtrack:Shin Sangokumusou 3 Original Sound Track [KECH-1233~4] (track D1-15)
Tabbed by:Vincent Bouchard
Last modified:2005-02-12
Print it:Original file (.TXT)
Hear it:MIDI file
                                  IN FULL BLOOM
As recorded by MASA, Kenji Nakajo, Yasuhiro Misawa, Michihiko Shichi, Mahito Yakota
         (From the 2004 Album SHIN SANGOKUMUSOU 3 ORIGINAL SOUND TRACK)

Music by MASA, Kenji Nakajo, Yasuhiro Misawa, Michihiko Shichi, Mahito Yakota
Transcribed by Vincent Bouchard

Gtr I (E A D G B E) - 'Lead Guitar ( Clean )'
Gtr II (E A D G B E) - 'Rythm Guitar'
Gtr III (E A D G B E) - 'Lead Guitar 2 ( Distortion )'
Gtr IV (E A D G B E) - 'Lead Guitar ( Distortion )'

  Q=80
 4/4
  Gtr I
  W          W
|----------|------|
|----------|------|
|----------|------|
|----------|------|
|----------|------|
|----------|------|


    S S S S +H.        W
||--------0-(0)------|-------||
||o-------0-(0)------|------o||
||------2------------|-------||
||----2--------------|-------||
||o-0----------------|------o||
||-------------------|-------||


    Gtr I
    S S  S S +H.
||---------0-(0)-------------------------|
||o--------0-(0)-------------------------|
||-------2-------------------------------|
||----2----------------------------------|
||o-0------------------------------------|
||---------------------------------------|
|
|   Gtr II
|   PM------------------------------|
|   S S  S S  S   S S S  S S S  S S S  E
||---------------------------------------|
||o-----10-------10-----10-----10-----10-|
||--9-9----9--9-----9-9----9-9----9-9----|
||---------------------------------------|
||o--------------------------------------|
||---------------------------------------|


  W                                   4x
|-------------------------------------||
|------------------------------------o||
|-------------------------------------||
|-------------------------------------||
|------------------------------------o||
|-------------------------------------||
|
| PM----------------------------|
| S S  S S S  S S S  S S S  S S S  E  4x
|-------------------------------------||
|-----10-----10-----10-----10-----10-o||
|-9-9----9-9----9-9----9-9----9-9-----||
|-------------------------------------||
|------------------------------------o||
|-------------------------------------||


    Gtr IV
    H                  Q.             S  S
||-----------------------------------------|
||o----------------------------------------|
||-----------------------------------------|
||--7-----------------10--------------9-10-|
||o----------------------------------------|
||-----------------------------------------|
|
|   Gtr II
|   PM-----------------------------|
|   S S  S S S  S S S  S  S S  S S S  E
||-----------------------------------------|
||o-----10-----10-----10------10-----10----|
||--9-9----9-9----9-9-----9-9----9-9-------|
||-----------------------------------------|
||o----------------------------------------|
||-----------------------------------------|


  Q        +S   S  S S  Q.             S  S
|--------------------------------------------|
|--------------------------------------------|
|--------------------------------------------|
|-9--------(9)--9h10p9-----------------------|
|----------------------10--------------7-10--|
|--------------------------------------------|
|
| PM--------------------------------|
| S S  S S  S   S  S S  S  S S  S S S  E
|--------------------------------------------|
|-----10-------10------10------10-----10-----|
|-9-9----9--9------9-9-----9-9----9-9--------|
|--------------------------------------------|
|--------------------------------------------|
|--------------------------------------------|


  >
  ~~~~~~~~~~~~~~~~~~~~~~~~~~~~~~~~~~~~~~~~~
  W                                    +W
|------------------------------------|----------------------------------------||
|------------------------------------|---------------------------------------o||
|------------------------------------|----------------------------------------||
|-7----------------------------------|-(7)------------------------------------||
|------------------------------------|---------------------------------------o||
|------------------------------------|----------------------------------------||
|
| PM----------------------------|       PM-----------------------------|
| S S  S S S  S S S  S S S  S S S  E    S  S  S S S  S S S  S S S  S S S  E
|------------------------------------|----------------------------------------||
|-----10-----10-----10-----10-----10-|-------10-----10-----10-----10-----10--o||
|-9-9----9-9----9-9----9-9----9-9----|--9--9----9-9----9-9----9-9----9-9------||
|------------------------------------|----------------------------------------||
|------------------------------------|---------------------------------------o||
|------------------------------------|----------------------------------------||


    Gtr III
     H                  Q.             S  S
||------------------------------------------|
||o-----------------------------------------|
||------------------------------------------|
||---7-----------------10--------------9-10-|
||o-----------------------------------------|
||------------------------------------------|
|
|   Gtr IV
|    H                  Q.             S  S
||------------------------------------------|
||o-10-----------------13-------------12-13-|
||------------------------------------------|
||------------------------------------------|
||o-----------------------------------------|
||------------------------------------------|
|
|   Gtr II
|    PM-----------------------------|
|    S S  S S S  S S S  S  S S  S S S  E
||------------------------------------------|
||o------10-----10-----10------10-----10----|
||---9-9----9-9----9-9-----9-9----9-9-------|
||------------------------------------------|
||o-----------------------------------------|
||------------------------------------------|


   Q         +S   S  S  S  Q.             S  S
|-----------------------------------------------|
|-----------------------------------------------|
|-----------------------------------------------|
|--9---------(9)--9h10p=9-----------------------|
|-------------------------10--------------7-10--|
|-----------------------------------------------|
|
|  Q         +S   S  S  S  Q.             S  S
|-10--------(10)-10h12p10-----------------------|
|-------------------------12--------------------|
|-----------------------------------------9-12--|
|-----------------------------------------------|
|-----------------------------------------------|
|-----------------------------------------------|
|
|  PM----------------------------------|
|  S S  S S   S   S  S  S  S  S S  S S S  E
|-----------------------------------------------|
|------10--------10-------10------10-----10-----|
|--9-9----9---9------9--9-----9-9----9-9--------|
|-----------------------------------------------|
|-----------------------------------------------|
|-----------------------------------------------|


   >
   ~~~~~~~~~~~~~~~~~~~~~~~~~~~~~~~~~~~~
   W
|-------------------------------------|
|-------------------------------------|
|-------------------------------------|
|--7----------------------------------|
|-------------------------------------|
|-------------------------------------|
|
|  >
|  ~~~~~~~~~~~~~~~~~~~~~~~~~~~~~~~~~~~~
|  W
|-------------------------------------|
|-10----------------------------------|
|-------------------------------------|
|-------------------------------------|
|-------------------------------------|
|-------------------------------------|
|
|  PM----------------------------|
|  S S  S S S  S S S  S S S  S S S  E
|-------------------------------------|
|------10-----10-----10-----10-----10-|
|--9-9----9-9----9-9----9-9----9-9----|
|-------------------------------------|
|-------------------------------------|
|-------------------------------------|


 ~~~~~~
   +W
|-----------------------------------------||
|----------------------------------------o||
|-----------------------------------------||
|--(7)------------------------------------||
|----------------------------------------o||
|-----------------------------------------||
|
|~~~~~~
|  +W
|-----------------------------------------||
|-(10)-----------------------------------o||
|-----------------------------------------||
|-----------------------------------------||
|----------------------------------------o||
|-----------------------------------------||
|
|   PM-----------------------------|
|   S  S  S S S  S S S  S S S  S S S  E
|-----------------------------------------||
|--------10-----10-----10-----10-----10--o||
|---9--9----9-9----9-9----9-9----9-9------||
|-----------------------------------------||
|----------------------------------------o||
|-----------------------------------------||


  Gtr IV
   ~~~                      ~~~~~~~~~~~~
   H.       +S   S  S  S    H     Q   Q
|-15-------(15)-13-12-13-|-15--------12--|
|------------------------|-------15------|
|------------------------|---------------|
|------------------------|---------------|
|------------------------|---------------|
|------------------------|---------------|


       ~~~~~~~~~~~~~~~~~      ~~~~~~~
   E.  S  +H.         Q   E.  S  +Q.    S  S
|------------------|--------------------------|
|-12--13-(13)------|-----12------------12-13--|
|------------------|-14------12-(12)----------|
|------------------|--------------------------|
|------------------|--------------------------|
|------------------|--------------------------|


   ~~~                      ~~~~~~~~~~~~
   H.       +S   S  S  S    H     Q   Q
|-15-------(15)-13-12-13-|-15--------12--|
|------------------------|-------15------|
|------------------------|---------------|
|------------------------|---------------|
|------------------------|---------------|
|------------------------|---------------|


                                   ~~~~~~~~
   E.  S  +E   E.  S  +E   E  E    H     H
|-------------------------------|-------------|
|-12--13-(13)-12--13-(13)-12-13-|-15----12----|
|-------------------------------|-------------|
|-------------------------------|-------------|
|-------------------------------|-------------|
|-------------------------------|-------------|


    Gtr I
     S  S  S S +H.
||-----------0-(0)------------------------|
||o----------0-(0)------------------------|
||---------2------------------------------|
||------2---------------------------------|
||o--0------------------------------------|
||----------------------------------------|
|
|   Gtr II
|    S  S  e    S  S  e  S  S  e  S  S  e
||----------------------------------------|
||o---------------------------------------|
||--14h17-14---14h17-14-14h17-14-14h17p14-|
||----------------------------------------|
||o---------------------------------------|
||----------------------------------------|


   W
|--------------------------------------||
|-------------------------------------o||
|--------------------------------------||
|--------------------------------------||
|-------------------------------------o||
|--------------------------------------||
|
|  S  S  e  S  S  e  S  S  e  S  S  e
|--------------------------------------||
|-------------------------------------o||
|-14h17-14-14h17-14-14h17-14-14h17p14--||
|--------------------------------------||
|-------------------------------------o||
|--------------------------------------||


    Gtr IV
    H                  H                  H                  H
||-------------------------------------|--------------------------------------||
||o------------------------------------|-------------------------------------o||
||-------------------------------------|--------------------------------------||
||---------------------7---------------|--------------------------------------||
||o-7----------------------------------|-10----------------------------------o||
||-------------------------------------|--------------------10----------------||
|
|   Gtr II
|   PM----------------------------|       PM----------------------------|
|   S S  S S S  S S S  S S S  S S S  E    S S  S S S  S S S  S S S  S S S  E
||-------------------------------------|--------------------------------------||
||o-----10-----10-----10-----10-----10-|------10-----10-----10-----10-----10-o||
||--9-9----9-9----9-9----9-9----9-9----|--9-9----9-9----9-9----9-9----9-9-----||
||-------------------------------------|--------------------------------------||
||o------------------------------------|-------------------------------------o||
||-------------------------------------|--------------------------------------||


    Gtr III
    H                  H                  H                  H
||-------------------------------------|--------------------------------------||
||o------------------------------------|-------------------------------------o||
||-------------------------------------|--------------------------------------||
||---------------------7---------------|--------------------------------------||
||o-7----------------------------------|-10----------------------------------o||
||-------------------------------------|--------------------10----------------||
|
|   Gtr IV
|   H                  H                  H                  H
||-------------------------------------|--------------------------------------||
||o-------------------10---------------|-------------------------------------o||
||--9----------------------------------|-12-----------------------------------||
||-------------------------------------|--------------------12----------------||
||o------------------------------------|-------------------------------------o||
||-------------------------------------|--------------------------------------||
|
|   Gtr II
|   PM----------------------------|       PM----------------------------|
|   S S  S S S  S S S  S S S  S S S  E    S S  S S S  S S S  S S S  S S S  E
||-------------------------------------|--------------------------------------||
||o-----10-----10-----10-----10-----10-|------10-----10-----10-----10-----10-o||
||--9-9----9-9----9-9----9-9----9-9----|--9-9----9-9----9-9----9-9----9-9-----||
||-------------------------------------|--------------------------------------||
||o------------------------------------|-------------------------------------o||
||-------------------------------------|--------------------------------------||


    H                  H                  H                  H
||-------------------------------------|--------------------------------------||
||o------------------------------------|-------------------------------------o||
||-------------------------------------|--------------------------------------||
||---------------------7---------------|--------------------------------------||
||o-7----------------------------------|-10----------------------------------o||
||-------------------------------------|--------------------10----------------||
|
|   H                  H                  H                  H
||-------------------------------------|--------------------------------------||
||o-------------------10---------------|-12----------------------------------o||
||--9----------------------------------|--------------------------------------||
||-------------------------------------|--------------------12----------------||
||o------------------------------------|-------------------------------------o||
||-------------------------------------|--------------------------------------||
|
|   PM----------------------------|       PM----------------------------|
|   S S  S S S  S S S  S S S  S S S  E    S S  S S S  S S S  S S S  S S S  E
||-------------------------------------|--------------------------------------||
||o-----10-----10-----10-----10-----10-|------10-----10-----10-----10-----10-o||
||--9-9----9-9----9-9----9-9----9-9----|--9-9----9-9----9-9----9-9----9-9-----||
||-------------------------------------|--------------------------------------||
||o------------------------------------|-------------------------------------o||
||-------------------------------------|--------------------------------------||


    H                  H                  H                  H
||-------------------------------------|--------------------------------------||
||o------------------------------------|-------------------------------------o||
||-------------------------------------|--------------------------------------||
||---------------------7---------------|--------------------------------------||
||o-7----------------------------------|-10----------------------------------o||
||-------------------------------------|--------------------10----------------||
|
|   H                  H                  H                  H
||-------------------------------------|--------------------------------------||
||o-------------------10---------------|-12----------------------------------o||
||--9----------------------------------|--------------------12----------------||
||-------------------------------------|--------------------------------------||
||o------------------------------------|-------------------------------------o||
||-------------------------------------|--------------------------------------||
|
|   PM----------------------------|       PM----------------------------|
|   S S  S S S  S S S  S S S  S S S  E    S S  S S S  S S S  S S S  S S S  E
||-------------------------------------|--------------------------------------||
||o-----10-----10-----10-----10-----10-|------10-----10-----10-----10-----10-o||
||--9-9----9-9----9-9----9-9----9-9----|--9-9----9-9----9-9----9-9----9-9-----||
||-------------------------------------|--------------------------------------||
||o------------------------------------|-------------------------------------o||
||-------------------------------------|--------------------------------------||


 4/4
  Gtr IV
   S  S  S  S  S  S  S   S    S    S    S   S  S S  S  S
|-12-13-13-12-12-----------------------------------------|
|----------------13-13-<12>-<12>-------------------------|
|--------------------------------<12>-<12>-10-10-9-10-12-|
|--------------------------------------------------------|
|--------------------------------------------------------|
|--------------------------------------------------------|


   Q      Q  T  T  T T  T  T  T  T  T  T  T  T  T  T  T  T
|-------------------------------------12h13h15-13-12-10-12--|
|----------------------------12h13h15-----------------------|
|-12b14--12----------9h10h12--------------------------------|
|------------9h10h12----------------------------------------|
|-----------------------------------------------------------|
|-----------------------------------------------------------|


   E.  S  E  S  S  E  S  S  E  S  S    Q      Q   s  e  e  S  S  S
|-12--10-12-12-13-15-13-15-17-15-17-|-19b20--19--17-15-13-12-------|
|-----------------------------------|------------------------15-13-|
|-----------------------------------|------------------------------|
|-----------------------------------|------------------------------|
|-----------------------------------|------------------------------|
|-----------------------------------|------------------------------|


   E     S  E     S  S  S  S  +S      +S   S  S   S    S   S
|-------15---------------------------------------------------|
|-15b17----15b17-13-15----12-(12)b14r(12)--------------------|
|----------------------14-----------------12-12--------------|
|-----------------------------------------------<12>-<12>-10-|
|------------------------------------------------------------|
|------------------------------------------------------------|


  PM--------|
                            |--3--|  |--3--|  |--3--|  |--3--|
  T  T T  T S  S  S S  S  S S  S  S  S  S  S  S  S  S  S  S  S
|--------------------------------------------10-12-13-12-10----|
|-----------------------------------10-12-13----------------13-|
|---------------------------9-10-12----------------------------|
|-9h10p9----9-------9-10-12------------------------------------|
|--------12---10-12--------------------------------------------|
|--------------------------------------------------------------|


   E.  T  T  Q   E.  +T   T  S  S  S  S    S  S  S  S  E  S  S  Q      E  E
|-10------------------------------12-15-|-------15-17-19-17-19-19b20--17-16-|
|-----13-12-13-----------------13-------|----15-----------------------------|
|---------------14--(14)-12S14----------|-16--------------------------------|
|---------------------------------------|-----------------------------------|
|---------------------------------------|-----------------------------------|
|---------------------------------------|-----------------------------------|


   W
|-17----*|
|-------*|
|-------*|
|-------*|
|-------*|
|-------*|


Duration Legend
---------------
W - whole; H - half; Q - quarter; E - 8th; S - 16th; T - 32nd; X - 64th; a - acciaccatura
+ - note tied to previous; . - note dotted; .. - note double dotted
Uncapitalized letters represent notes that are staccato (1/2 duration)
Irregular groupings are notated above the duration line
Duration letters will always appear directly above the note/fret number it represents the
duration for.  Duration letters with no fret number below them represent rests.  Multi-
bar rests are notated in the form Wxn, where n is the number of bars to rest for.  Low
melody durations appear below the staff

Tablature Legend
----------------
 h   - hammer-on
 p   - pull-off
 b   - bend
 pb  - pre-bend
 r   - bend release (if no number after the r, then release immediately)
 /\  - slide into or out of (from/to "nowhere")
 s   - legato slide
 S   - shift slide
  - natural harmonic
[n]  - artificial harmonic
n(n) - tapped harmonic
 ~   - vibrato
 tr  - trill
 T   - tap
 TP  - trem. picking
 PM  - palm muting
\n/  - tremolo bar dip; n = amount to dip
 \n  - tremolo bar down
 n/  - tremolo bar up
/n\  - tremolo bar inverted dip
 =   - hold bend; also acts as connecting device for hammers/pulls
 <>  - volume swell (louder/softer)
 x   - on rhythm slash represents muted slash
 o   - on rhythm slash represents single note slash

Misc Legend
-----------
 |  - bar
||  - double bar
||o - repeat start
o|| - repeat end
*|  - double bar (ending)
 :  - bar (freetime)
 $  - Segno
 &  - Coda
Tempo markers -  = BPM(8/16=s8/s16), where s8 = swing 8ths, s16 = swing 16ths


***************************************************************************************
* Generated using Power Tab Editor by Brad Larsen - http://powertab.guitarnetwork.org *
***************************************************************************************

VGJam Tabs Dynasty Warriors 4 - "In Full Bloom"
Tabs database last modified Tuesday, 01-Nov-2016 19:14:53 UTC.
Copyright © 1999 - 2016 VideoGameJam.com. All rights reserved.