VGJam Tabs Dynasty Warriors 4
Dynasty Warriors 4
"In Full Bloom" - Bass tab
Platform(s):Multi-platformPlayStation 2Xbox
Composed by:MASA, Kenji Nakajo, Yasuhiro Misawa, Michihiko Shichi, Mahito Yakota
Soundtrack:Shin Sangokumusou 3 Original Sound Track [KECH-1233~4] (track D1-15)
Tabbed by:Vincent Bouchard
Last modified:2006-01-16
Print it:Original file (.TXT)
Hear it:MIDI file
                            IN FULL BLOOM (Bassline)
                        As recorded by Dynasty Warriors 4
         (From the 2004 Album SHIN SANGOKUMUSOU 3 ORIGINAL SOUND TRACK)

Music by MASA, Kenji Nakajo, Yasuhiro Misawa, Michihiko Shichi, Mahito 
Yakota
Transcribed by Vincent Bouchard

Gtr I (E A D G) - 'Bass'

Drum Intro
  Q=80
4/4
  Gtr I
  W          W
|----------|------|
|----------|------|
|----------|------|
|----------|------|


   Acoustic Intro
    S S +E  +H.        S S +E  +H.
||-------------------|-----------------||
||o------------------|----------------o||
||o-0-0-(0)-(0)------|-0-0-(0)-(0)----o||
||-------------------|-----------------||


    S S S S S S S S S E S S S S S   S S S S S S S S S E S S S S S  4x
||--------------------------------|--------------------------------||
||o-------------------------------|-------------------------------o||
||o-0-0---0-0---0-0---0-0-0-0-0---|-------------------------------o||
||------------------------------4-|-3-3---3-3---3-3---3-3-3-3-3-4--||


   Verse 1
    S S S S S S S S S E S S S S S   S S S S S S S S S E S S S S S  7x
||--------------------------------|--------------------------------||
||o-------------------------------|-------------------------------o||
||o-0-0---0-0---0-0---0-0-0-0-0---|-------------------------------o||
||------------------------------4-|-3-3---3-3---3-3---3-3-3-3-3-4--||


  S S S S S S S S S E S S S S S   S S S S S S S S S E S S S S S
|-------------------------------|--------------------------------|
|-------------------------------|--------------------------------|
|-0-0---0-0---0-0---0-0-0-0-0---|--------------------------------|
|-----------------------------4-|-3-3---3-3---3-3---3-3-3-3-3-2--|


   Chorus
    S S S S S S S S S E S S S S S   S S S S S S S S S E S S S S S  3x
||--------------------------------|--------------------------------||
||o-------------------------------|-------------------------------o||
||o-------------------------------|-------------------------------o||
||--1-1---1-1---1-1---1-1-1-1-1-2-|-3-3---3-3---3-3---3-3-3-3-3-2--||


  S S S S S S S S S E S S S S S   S S S S S S S S E +S  S S S S S
|-------------------------------|----------------------------------|
|-------------------------------|----------------------------------|
|-------------------------------|-----------------------2-2-2-2-2--|
|-1-1---1-1---1-1---1-1-1-1-1-2-|-3-3---3-3---3-3-1-(1)------------|


   Bridge
    S S S S S S S S S E S S S S S   S S S S S S S S S E S S S S S
||--------------------------------|--------------------------------||
||o-------------------------------|-------------------------------o||
||o-0-0---0-0---0-0---0-0-0-0-0---|-------------------------------o||
||------------------------------4-|-3-3---3-3---3-3---3-3-3-3-3-4--||


   Verse 2
    S S S S S S S S S E S S S S S   S S S S S S S S S E S S S S S  7x
||--------------------------------|--------------------------------||
||o-------------------------------|-------------------------------o||
||o-0-0---0-0---0-0---0-0-0-0-0---|-------------------------------o||
||------------------------------4-|-3-3---3-3---3-3---3-3-3-3-3-4--||


  S S S S S S S S S E S S S S S   S S S S S S S S S E S S S S S
|-------------------------------|--------------------------------|
|-------------------------------|--------------------------------|
|-0-0---0-0---0-0---0-0-0-0-0---|--------------------------------|
|-----------------------------4-|-3-3---3-3---3-3---3-3-3-3-3-2--|


   Guitar Solo
    S S S S S S S S S E S S S S S   S S S S S S S S S E S S S S S  3x
||--------------------------------|--------------------------------||
||o-------------------------------|-------------------------------o||
||o-------------------------------|-------------------------------o||
||--1-1---1-1---1-1---1-1-1-1-1-2-|-3-3---3-3---3-3---3-3-3-3-3-2--||


  S S S S S S S S S E S S S S S   S S S S S S S S E +S  S S S S S
|-------------------------------|----------------------------------|
|-------------------------------|----------------------------------|
|-------------------------------|-----------------------2-2-2-2-2--|
|-1-1---1-1---1-1---1-1-1-1-1-2-|-3-3---3-3---3-3-1-(1)------------|


   Outro
    S S S S S S S S S E S S S S S   S S S S S S S S S E S S S S S
||--------------------------------|--------------------------------||
||o-------------------------------|-------------------------------o||
||o-0-0---0-0---0-0---0-0-0-0-0---|-------------------------------o||
||------------------------------4-|-3-3---3-3---3-3---3-3-3-3-3-4--||


Duration Legend
---------------
W - whole; H - half; Q - quarter; E - 8th; S - 16th; T - 32nd; X - 64th; a - 
acciaccatura
+ - note tied to previous; . - note dotted; .. - note double dotted
Uncapitalized letters represent notes that are staccato (1/2 duration)
Irregular groupings are notated above the duration line
Duration letters will always appear directly above the note/fret number it 
represents the
duration for.  Duration letters with no fret number below them represent 
rests.  Multi-
bar rests are notated in the form Wxn, where n is the number of bars to rest 
for.  Low
melody durations appear below the staff

Tablature Legend
----------------
h   - hammer-on
p   - pull-off
b   - bend
pb  - pre-bend
r   - bend release (if no number after the r, then release immediately)
/\  - slide into or out of (from/to "nowhere")
s   - legato slide
S   - shift slide
  - natural harmonic
[n]  - artificial harmonic
n(n) - tapped harmonic
~   - vibrato
tr  - trill
T   - tap
TP  - trem. picking
PM  - palm muting
\n/  - tremolo bar dip; n = amount to dip
\n  - tremolo bar down
n/  - tremolo bar up
/n\  - tremolo bar inverted dip
=   - hold bend; also acts as connecting device for hammers/pulls
<>  - volume swell (louder/softer)
x   - on rhythm slash represents muted slash
o   - on rhythm slash represents single note slash

Misc Legend
-----------
|  - bar
||  - double bar
||o - repeat start
o|| - repeat end
*|  - double bar (ending)
:  - bar (freetime)
$  - Segno
&  - Coda
Tempo markers -  = BPM(8/16=s8/s16), where s8 = swing 8ths, 
s16 = swing 16ths


***************************************************************************************
* Generated using Power Tab Editor by Brad Larsen - 
http://powertab.guitarnetwork.org *
***************************************************************************************

VGJam Tabs Dynasty Warriors 4 - "In Full Bloom"
Tabs database last modified Tuesday, 01-Nov-2016 19:14:53 UTC.
Copyright © 1999 - 2016 VideoGameJam.com. All rights reserved.