VGJam Tabs Dynasty Warriors 4
Dynasty Warriors 4
"Eve" - Guitar tab
Platform(s):Multi-platformPlayStation 2Xbox
Composed by:MASA, Kenji Nakajo, Yasuhiro Misawa, Michihiko Shichi, Mahito Yakota
Soundtrack:Shin Sangokumusou 3 Original Sound Track [KECH-1233~4] (track D1-18)
Tabbed by:Vincent Bouchard
Last modified:2005-07-14
Print it:Original file (.TXT)
Hear it:MIDI file
                                       EVE
As recorded by MASA, Kenji Nakajo, Yasuhiro Misawa, Michihiko Shichi, Mahito 
Yakota
         (From the 2004 Album SHIN SANGOKUMUSOU 3 ORIGINAL SOUND TRACK)

Music by MASA, Kenji Nakajo, Yasuhiro Misawa, Michihiko Shichi, Mahito 
Yakota
Transcribed by Vincent Bouchard

          G#5                  C#5                  B5                   C5
      4 6 6 x x x         9 11 11 x x x         7 9 9 x x x         8 10 10 
x x x

Gtr I (E A D G B E) - 'Guitar 1'
Gtr II (E A D G B E) - 'Guitar 2'
Gtr III (E A D G B E) - 'Synth'
Gtr IV (E A D G B E) - 'Flute'

   Main Theme : Guitar
    Q=120
    N.C.
   4/4
    Gtr I
     S  S  S  S  S  S  S  S  S  S  S  S  S  S  S  S  8x
||-----------------------------17--------------------||
||o-17-------19-------20----------------20----19----o||
||-----16-16----16-16----16-16----16-16----16----16--||
||---------------------------------------------------||
||o-------------------------------------------------o||
||---------------------------------------------------||


    Gtr I
     S  S  S  S  S  S  S  S  S  S  S  S  S  S  S  S  8x
||-----------------------------17--------------------||
||o-17-------19-------20----------------20----19----o||
||-----16-16----16-16----16-16----16-16----16----16--||
||---------------------------------------------------||
||o-------------------------------------------------o||
||---------------------------------------------------||
|
|   Gtr II
|    S  E     S  E     S  E     S  E     S  S  S  S  8x
||--------------------19-------20-------19-----------||
||o-20-------22-------------------------------22----o||
||---------------------------------------------------||
||---------------------------------------------------||
||o-------------------------------------------------o||
||---------------------------------------------------||


                                     ~~
   E.  E.  Q   E      +S   +S   E    W
|-----14--15--15b17==(15)r(15)-14-|-------|
|-15------------------------------|-15----|
|---------------------------------|-------|
|---------------------------------|-------|
|---------------------------------|-------|
|---------------------------------|-------|
|
|                                    ~~
|  E.  E.  Q   E      +S   +S   E    W
|---------------------------------|-------|
|---------------------------------|-------|
|---------------------------------|-------|
|-----16--17--17b19==(17)r(17)-16-|-------|
|-17------------------------------|-17----|
|---------------------------------|-------|


   Main Theme : Synth
    $
    Gtr III
     S  S  S  S  S  S  S  S  S  S  S  S  S  S  S  S
||-----------------------------17-------------------|
||o-17-------19-------20----------------20----19----|
||-----16-16----16-16----16-16----16-16----16----16-|
||--------------------------------------------------|
||o-------------------------------------------------|
||--------------------------------------------------|


   S  S  S  S  S  S  S  S  S  S  S  S  S  S  S  S
|----------------------------17-------------------|
|-17-------19-------20----------------20----19----|
|----16-16----16-16----16-16----16-16----16----16-|
|-------------------------------------------------|
|-------------------------------------------------|
|-------------------------------------------------|


   S  S  S  S  S  S  S  S  S  S  S  S  S  S  S  S
|----------------------------17-------------------|
|----------19-------20----------------20----19----|
|-19-16-16----16-16----16-16----16-16----16----16-|
|-------------------------------------------------|
|-------------------------------------------------|
|-------------------------------------------------|


  1.
   S  S  S  S  S  S  S  S  S  S  S  S  S  S  S  S
|----------------------------17--------------------||
|----------19-------20----------------20----19----o||
|-19-16-16----16-16----16-16----16-16----16----16--||
|--------------------------------------------------||
|-------------------------------------------------o||
|--------------------------------------------------||


  2.
   S  S  S  S  S  S  S  S  S  S  S  S   Q
|----------------------------17------------|
|----------19-------20----------------/15--|
|-19-16-16----16-16----16-16----16-16------|
|------------------------------------------|
|------------------------------------------|
|------------------------------------------|


Flute Solo
  G#5                    C#5
  Gtr IV
   Q.      Q.      Q      Q.      S  S  Q    E  E
|----------------------|--------------------------|
|-16--------------16---|-18------19-18------------|
|---------15-----------|---------------18------18-|
|----------------------|--------------------18----|
|----------------------|--------------------------|
|----------------------|--------------------------|
|
| Gtr II
|     PM|     PM|    PM      PM|        PM|     PM
|  E  E E  E  E E  E E    E  E E  E     E E  E  E
|----------------------|--------------------------|
|----------------------|--------------------------|
|----------------------|--------------------------|
|--6-------6-------6---|-11------11---------11----|
|--6-------6-------6---|-11------11---------11----|
|--4--4-4--4--4-4--4-4-|--9--9-9--9-----9-9--9--9-|


  B5                 B5
   W                  +W
|------------------|---------------------|
|------------------|---------------------|
|-16---------------|-(16)----------------|
|------------------|---------------------|
|------------------|---------------------|
|------------------|---------------------|
|
|    PM|   PM|   PM       PM|   PM|   PM
|  E E E E E E E E     E  E E E E E E E
|------------------|---------------------|
|------------------|---------------------|
|------------------|---------------------|
|--9-----9-----9---|---9------9-----9----|
|--9-----9-----9---|---9------9-----9----|
|--7-7-7-7-7-7-7-7-|---7--7-7-7-7-7-7-7--|


  G#5                    C#5
   Q.      Q.      Q      Q.      S  S  Q    E  E
|----------------------|--------------------------|
|-16--------------16---|-18------19-18------------|
|---------15-----------|---------------18------18-|
|----------------------|--------------------18----|
|----------------------|--------------------------|
|----------------------|--------------------------|
|
|     PM|     PM|    PM      PM|        PM|     PM
|  E  E E  E  E E  E E    E  E E  E     E E  E  E
|----------------------|--------------------------|
|----------------------|--------------------------|
|----------------------|--------------------------|
|--6-------6-------6---|-11------11---------11----|
|--6-------6-------6---|-11------11---------11----|
|--4--4-4--4--4-4--4-4-|--9--9-9--9-----9-9--9--9-|


  B5                      B5
   H        +E   Q.        +W
|-----------------------|---------------------|
|-16-------(16)-19------|-(19)----------------|
|-----------------------|---------------------|
|-----------------------|---------------------|
|-----------------------|---------------------|
|-----------------------|---------------------|
|
|    PM|     PM-|     PM       PM|   PM|   PM
|  E E E E   E   E  E E     E  E E E E E E E
|-----------------------|---------------------|
|-----------------------|---------------------|
|-----------------------|---------------------|
|--9-----9----------9---|---9------9-----9----|
|--9-----9----------9---|---9------9-----9----|
|--7-7-7-7---7---7--7-7-|---7--7-7-7-7-7-7-7--|


  G#5                    C#5
   Q.      Q.      Q      Q.      Q.      Q
|----------------------|---------21------16---|
|-19--------------19---|-21-------------------|
|---------18-----------|----------------------|
|----------------------|----------------------|
|----------------------|----------------------|
|----------------------|----------------------|
|
|     PM|     PM|    PM      PM|     PM|    PM
|  E  E E  E  E E  E E    E  E E  E  E E  E E
|----------------------|----------------------|
|----------------------|----------------------|
|----------------------|----------------------|
|--6-------6-------6---|-11------11------11---|
|--6-------6-------6---|-11------11------11---|
|--4--4-4--4--4-4--4-4-|--9--9-9--9--9-9--9-9-|


  B5                       B5
   Q.      S  S  H          +W
|-18------16-------------|---------------------|
|------------19-16-------|-(16)----------------|
|------------------------|---------------------|
|------------------------|---------------------|
|------------------------|---------------------|
|------------------------|---------------------|
|
|     PM|        PM|   PM       PM|   PM|   PM
|  E  E E  E     E E E E     E  E E E E E E E
|------------------------|---------------------|
|------------------------|---------------------|
|------------------------|---------------------|
|--9-------9---------9---|---9------9-----9----|
|--9-------9---------9---|---9------9-----9----|
|--7--7-7--7-----7-7-7-7-|---7--7-7-7-7-7-7-7--|


  G#5                    C#5
   Q.      Q.      Q      Q.      Q.      Q
|----------------------|---------21-----------|
|-23--------------23---|-21--------------23---|
|---------20-----------|----------------------|
|----------------------|----------------------|
|----------------------|----------------------|
|----------------------|----------------------|
|
|     PM|     PM|    PM      PM|     PM|    PM
|  E  E E  E  E E  E E    E  E E  E  E E  E E
|----------------------|----------------------|
|----------------------|----------------------|
|----------------------|----------------------|
|--6-------6-------6---|-11------11------11---|
|--6-------6-------6---|-11------11------11---|
|--4--4-4--4--4-4--4-4-|--9--9-9--9--9-9--9-9-|


  C5                   C5
   W                    +W
|-23-----------------|-(23)-----------------|
|--------------------|----------------------|
|--------------------|----------------------|
|--------------------|----------------------|
|--------------------|----------------------|
|--------------------|----------------------|
|
|    PM|    PM|    PM       PM|    PM|    PM
|  E E E  E E E  E E     E  E E  E E E  E E
|--------------------|----------------------|
|--------------------|----------------------|
|--------------------|----------------------|
|-10-----10-----10---|--10------10-----10---|
|-10-----10-----10---|--10------10-----10---|
|--8-8-8--8-8-8--8-8-|---8--8-8--8-8-8--8-8-|


   Main Theme : Synth
    N.C.
    Gtr III
     S  S  S  S  S  S  S  S  S  S  S  S  S  S  S  S
||-----------------------------17-------------------|
||o-17-------19-------20----------------20----19----|
||-----16-16----16-16----16-16----16-16----16----16-|
||--------------------------------------------------|
||o-------------------------------------------------|
||--------------------------------------------------|


   S  S  S  S  S  S  S  S  S  S  S  S  S  S  S  S
|----------------------------17-------------------|
|-17-------19-------20----------------20----19----|
|----16-16----16-16----16-16----16-16----16----16-|
|-------------------------------------------------|
|-------------------------------------------------|
|-------------------------------------------------|


   S  S  S  S  S  S  S  S  S  S  S  S  S  S  S  S
|----------------------------17-------------------|
|----------19-------20----------------20----19----|
|-19-16-16----16-16----16-16----16-16----16----16-|
|-------------------------------------------------|
|-------------------------------------------------|
|-------------------------------------------------|


  1.
   S  S  S  S  S  S  S  S  S  S  S  S  S  S  S  S
|----------------------------17--------------------||
|----------19-------20----------------20----19----o||
|-19-16-16----16-16----16-16----16-16----16----16--||
|--------------------------------------------------||
|-------------------------------------------------o||
|--------------------------------------------------||


  2.
   S  S  S  S  S  S  S  S  S  S  S  S   Q
|----------------------------17------------|
|----------19-------20----------------/15--|
|-19-16-16----16-16----16-16----16-16------|
|------------------------------------------|
|------------------------------------------|
|------------------------------------------|


Guitar Solo
  G#5                    C#5
  Gtr I
   Q.      Q.      Q      Q.      Q.      Q
|----------------------|---------16------21---|
|---------16------18---|-19-------------------|
|-15-------------------|----------------------|
|----------------------|----------------------|
|----------------------|----------------------|
|----------------------|----------------------|
|
| Gtr II
|     PM|     PM|    PM      PM|     PM|    PM
|  E  E E  E  E E  E E    E  E E  E  E E  E E
|----------------------|----------------------|
|----------------------|----------------------|
|----------------------|----------------------|
|--6-------6-------6---|-11------11------11---|
|--6-------6-------6---|-11------11------11---|
|--4--4-4--4--4-4--4-4-|--9--9-9--9--9-9--9-9-|


  B5                       B5
   Q.      Q.      +Q       +Q.      S  S  E.    E.    E
|-19------18------(18)---|-(18)--------16-18----16-------|
|------------------------|----------19----------------19-|
|------------------------|-------------------------------|
|------------------------|-------------------------------|
|------------------------|-------------------------------|
|------------------------|-------------------------------|
|
|     PM|     PM|      PM       PM|        PM-|        PM
|  E  E E  E  E E   E  E     E  E E  E     E  E     E  E
|------------------------|-------------------------------|
|------------------------|-------------------------------|
|------------------------|-------------------------------|
|--9-------9--------9----|---9-------9--------------9----|
|--9-------9--------9----|---9-------9--------------9----|
|--7--7-7--7--7-7---7--7-|---7--7-7--7-----7--7-----7--7-|


  G#5                    C#5
   Q.      Q.      Q      +Q.      S  S  E.    E.     E
|----------------------|----------------16--------------|
|-18------19------16---|-(16)-----18-19-------19-----18-|
|----------------------|--------------------------------|
|----------------------|--------------------------------|
|----------------------|--------------------------------|
|----------------------|--------------------------------|
|
|     PM|     PM|    PM       PM|        PM-|         PM
|  E  E E  E  E E  E E     E  E E  E     E  E      E  E
|----------------------|--------------------------------|
|----------------------|--------------------------------|
|----------------------|--------------------------------|
|--6-------6-------6---|--11------11--------------11----|
|--6-------6-------6---|--11------11--------------11----|
|--4--4-4--4--4-4--4-4-|---9--9-9--9-----9--9------9--9-|


  B5                       B5
   Q.      Q.      +Q       +W
|------------------------|--------------------|
|-18------19------(19)---|-(19)---------------|
|------------------------|--------------------|
|------------------------|--------------------|
|------------------------|--------------------|
|------------------------|--------------------|
|
|     PM|     PM|      PM       PM|   PM|   PM
|  E  E E  E  E E   E  E     E  E E E E E E E
|------------------------|--------------------|
|------------------------|--------------------|
|------------------------|--------------------|
|--9-------9--------9----|---9------9-----9---|
|--9-------9--------9----|---9------9-----9---|
|--7--7-7--7--7-7---7--7-|---7--7-7-7-7-7-7-7-|


  G#5                    C#5
   Q.      Q.      Q      Q.      Q.      Q
|----------------------|---------16------21---|
|---------16------18---|-19-------------------|
|-15-------------------|----------------------|
|----------------------|----------------------|
|----------------------|----------------------|
|----------------------|----------------------|
|
|     PM|     PM|    PM      PM|     PM|    PM
|  E  E E  E  E E  E E    E  E E  E  E E  E E
|----------------------|----------------------|
|----------------------|----------------------|
|----------------------|----------------------|
|--6-------6-------6---|-11------11------11---|
|--6-------6-------6---|-11------11------11---|
|--4--4-4--4--4-4--4-4-|--9--9-9--9--9-9--9-9-|


  B5                       B5
   Q.      Q.      +Q       +Q.      S  S  E.    E.    E
|-19------18------(18)---|-(18)--------16-18----19----18-|
|------------------------|----------19-------------------|
|------------------------|-------------------------------|
|------------------------|-------------------------------|
|------------------------|-------------------------------|
|------------------------|-------------------------------|
|
|     PM|     PM|      PM       PM|        PM-|        PM
|  E  E E  E  E E   E  E     E  E E  E     E  E     E  E
|------------------------|-------------------------------|
|------------------------|-------------------------------|
|------------------------|-------------------------------|
|--9-------9--------9----|---9-------9--------------9----|
|--9-------9--------9----|---9-------9--------------9----|
|--7--7-7--7--7-7---7--7-|---7--7-7--7-----7--7-----7--7-|


  G#5                         C#5
   Q.      Q.       E  S  S    S  S  S  S  S  S  S  S  S  S  S  S  S  S  S  
S
|-18------19------/16-19-19-|-19S18-18-18-18S16-16-16-16S14-14-14-14S13-13-13-|
|---------------------------|-------------------------------------------------|
|---------------------------|-------------------------------------------------|
|---------------------------|-------------------------------------------------|
|---------------------------|-------------------------------------------------|
|---------------------------|-------------------------------------------------|
|
|     PM|     PM|      PM            PM---|            PM---|            PM
|  E  E E  E  E E   E  E       E     E     E     E     E     E     E     E
|---------------------------|-------------------------------------------------|
|---------------------------|-------------------------------------------------|
|---------------------------|-------------------------------------------------|
|--6-------6--------6-------|-11----------------11----------------11----------|
|--6-------6--------6-------|-11----------------11----------------11----------|
|--4--4-4--4--4-4---4--4----|--9-----9-----9-----9-----9-----9-----9-----9----|


  C5
   S  S  S  S  S S  S S S S S S  S S S S
|-13S11-11-11-11S9--9-9-9S7-7-7--7S6-6-6-|
|----------------------------------------|
|----------------------------------------|
|----------------------------------------|
|----------------------------------------|
|----------------------------------------|
|
|        PM---|         PM--|        PM
|  E     E     E    E   E   E    E   E
|----------------------------------------|
|----------------------------------------|
|----------------------------------------|
|-10---------------10-----------10-------|
|-10---------------10-----------10-------|
|--8-----8-----8----8---8---8----8---8---|


  C5
   S S S S S S  S S S    +S  +S     +S  +S     +S  +S     +S
|--6S4-4-4-4S2-------------------------------------------------|
|---------------7-7-7b9==(7)r(7)b9==(7)r(7)b9==(7)r(7)b9==(7)r=|
|--------------------------------------------------------------|
|--------------------------------------------------------------|
|--------------------------------------------------------------|
|--------------------------------------------------------------|
|
|      PM--|        PM-------|                      PM
|  E   E   E    E   E         E          E          E
|--------------------------------------------------------------|
|--------------------------------------------------------------|
|--------------------------------------------------------------|
|-10-----------10-----------------------10---------------------|
|-10-----------10-----------------------10---------------------|
|--8---8---8----8---8---------8----------8----------8----------|


Main Theme : Guitar
  N.C.
   ~~~
  +W
|--------------------------------------------------|
|-(7)----------------------------------------------|
|--------------------------------------------------|
|--------------------------------------------------|
|--------------------------------------------------|
|--------------------------------------------------|
|
|  S   S  S  S  S  S  S  S  S  S  S  S  S  S  S  S
|-----------------------------17-------------------|
|-17--------19-------20----------------20----19----|
|-----16-16----16-16----16-16----16-16----16----16-|
|--------------------------------------------------|
|--------------------------------------------------|
|--------------------------------------------------|


   ~~~
  +W
|--------------------------------------------------|
|-(7)----------------------------------------------|
|--------------------------------------------------|
|--------------------------------------------------|
|--------------------------------------------------|
|--------------------------------------------------|
|
|  S   S  S  S  S  S  S  S  S  S  S  S  S  S  S  S
|-----------------------------17-------------------|
|-17--------19-------20----------------20----19----|
|-----16-16----16-16----16-16----16-16----16----16-|
|--------------------------------------------------|
|--------------------------------------------------|
|--------------------------------------------------|


                                                 Fine
    Gtr I
     S  S  S  S  S  S  S  S  S  S  S  S  S  S  S  S  6x
||-----------------------------17--------------------||
||o-17-------19-------20----------------20----19----o||
||-----16-16----16-16----16-16----16-16----16----16--||
||---------------------------------------------------||
||o-------------------------------------------------o||
||---------------------------------------------------||


                                     D.S. al Fine
    Gtr I
     S  S  S  S  S  S  S  S  S  S  S  S  S  S  S  S  8x
||-----------------------------17--------------------||
||o-17-------19-------20----------------20----19----o||
||-----16-16----16-16----16-16----16-16----16----16--||
||---------------------------------------------------||
||o-------------------------------------------------o||
||---------------------------------------------------||
|
|   Gtr II
|    S  E     S  E     S  E     S  E     S  S  S  S  8x
||--------------------19-------20-------19-----------||
||o-20-------22-------------------------------22----o||
||---------------------------------------------------||
||---------------------------------------------------||
||o-------------------------------------------------o||
||---------------------------------------------------||


Duration Legend
---------------
W - whole; H - half; Q - quarter; E - 8th; S - 16th; T - 32nd; X - 64th; a - 
acciaccatura
+ - note tied to previous; . - note dotted; .. - note double dotted
Uncapitalized letters represent notes that are staccato (1/2 duration)
Irregular groupings are notated above the duration line
Duration letters will always appear directly above the note/fret number it 
represents the
duration for.  Duration letters with no fret number below them represent 
rests.  Multi-
bar rests are notated in the form Wxn, where n is the number of bars to rest 
for.  Low
melody durations appear below the staff

Tablature Legend
----------------
h   - hammer-on
p   - pull-off
b   - bend
pb  - pre-bend
r   - bend release (if no number after the r, then release immediately)
/\  - slide into or out of (from/to "nowhere")
s   - legato slide
S   - shift slide
  - natural harmonic
[n]  - artificial harmonic
n(n) - tapped harmonic
~   - vibrato
tr  - trill
T   - tap
TP  - trem. picking
PM  - palm muting
\n/  - tremolo bar dip; n = amount to dip
\n  - tremolo bar down
n/  - tremolo bar up
/n\  - tremolo bar inverted dip
=   - hold bend; also acts as connecting device for hammers/pulls
<>  - volume swell (louder/softer)
x   - on rhythm slash represents muted slash
o   - on rhythm slash represents single note slash

Misc Legend
-----------
|  - bar
||  - double bar
||o - repeat start
o|| - repeat end
*|  - double bar (ending)
:  - bar (freetime)
$  - Segno
&  - Coda
Tempo markers -  = BPM(8/16=s8/s16), where s8 = swing 8ths, 
s16 = swing 16ths


***************************************************************************************
* Generated using Power Tab Editor by Brad Larsen - 
http://powertab.guitarnetwork.org *
***************************************************************************************

VGJam Tabs Dynasty Warriors 4 - "Eve"
Tabs database last modified Tuesday, 01-Nov-2016 19:14:53 UTC.
Copyright © 1999 - 2016 VideoGameJam.com. All rights reserved.