VGJam Tabs Dynasty Warriors 4
Dynasty Warriors 4
"Parade of Death (solo)" - Guitar tab
Platform(s):Multi-platformPlayStation 2Xbox
Composed by:MASA, Kenji Nakajo, Yasuhiro Misawa, Michihiko Shichi, Mahito Yakota
Soundtrack:Shin Sangokumusou 3 Original Sound Track [KECH-1233~4] (track D2-04)
Tabbed by:Vincent Bouchard
Last modified:2005-02-19
Print it:Original file (.TXT)
Hear it:MIDI file
                                 PARADE OF DEATH
As recorded by MASA, Kenji Nakajo, Yasuhiro Misawa, Michihiko Shichi, Mahito Yakota
         (From the 2004 Album SHIN SANGOKUMUSOU 3 ORIGINAL SOUND TRACK)

Music by MASA, Kenji Nakajo, Yasuhiro Misawa, Michihiko Shichi, Mahito Yakota
Transcribed by Vincent Bouchard

Gtr I (E A D G B E) - 'Lead Guitar'

  Q=70
 4/4
  Gtr I
    PM---|    PM-----|        PM|  ~
    |-3--|    |-3--|  |-3-| |-3--|
  E S  S S  E S  S S  S S S S S  S Q
|-------------------------------------|
|-------------------------------------|
|-------------------------------------|
|-----------------------7-9-7---------|
|-7-7----7-10-7----7-10-------7----7--|
|-----10--------10--------------10----|


  |-3--| |-3--| |-3--| |-3-| |---3---| |--3--|
  S  S S S S  S S  S S S S S S   +S  S S   S S Q
|--------------------------------------------------|
|----------------------------7b9r(7)---7b9r7-------|
|------------------------7-9---------7-------7-----|
|--------7-----------7-9-----------------------7---|
|-7-10-7---7-10-7-10-------------------------------|
|--------------------------------------------------|


      |-3-|        |-3-|    |-3--|
  E   S S S Q   E  S S S E +S  S S
|----------------------------------|
|----------------------------------|
|-7b9-9-7-6------------------------|
|-----------7--10-10-9-7-9-(9)-7-9-|
|----------------------------------|
|----------------------------------|


   |-3-| |-3-| |-3--| |-3--| |-3--|
   S S S S S S S S  S S S  S S S  S  E     Q
|---------------------7-8----7-8-10-10b12-10--|
|--------7-8---7-8-10-----10------------------|
|----7-9-----9--------------------------------|
|-10------------------------------------------|
|---------------------------------------------|
|---------------------------------------------|


       |--3--|          |--3--|
    E  S  S  S  Q    E  S  S  S  Q
|-/15-15-14-12----------------------|
|--------------12--/15-15-13-12-----|
|-------------------------------12--|
|-----------------------------------|
|-----------------------------------|
|-----------------------------------|


   |--3--|  |--3--|  |--3--|  |--3--|  |-----3-----|        |--3--|
   S  S  S  S  S  S  S  S  S  S  S  S  E     E     E     E  S  S  S
|-------------------------12-14-15-17-17b19-17b19-17b19-17-17-15-14-|
|-------------------12-15-------------------------------------------|
|-------12----12-14-------------------------------------------------|
|-12-14----14-------------------------------------------------------|
|-------------------------------------------------------------------|
|-------------------------------------------------------------------|


                                                         ~~
      |--3--|     |--3--|   |-----3-----|     |--3--|
   E  S  S  S  E  S  S  S   E   E  +S   S  E  S  S  S    W
|-15-15-14----------------/14-/14-(14)s12-------------|-------*|
|----------15----------15-----------------15-15----15-|-17----*|
|-------------14-14-16--------------------------16----|-------*|
|-----------------------------------------------------|-------*|
|-----------------------------------------------------|-------*|
|-----------------------------------------------------|-------*|


Duration Legend
---------------
W - whole; H - half; Q - quarter; E - 8th; S - 16th; T - 32nd; X - 64th; a - acciaccatura
+ - note tied to previous; . - note dotted; .. - note double dotted
Uncapitalized letters represent notes that are staccato (1/2 duration)
Irregular groupings are notated above the duration line
Duration letters will always appear directly above the note/fret number it represents the
duration for.  Duration letters with no fret number below them represent rests.  Multi-
bar rests are notated in the form Wxn, where n is the number of bars to rest for.  Low
melody durations appear below the staff

Tablature Legend
----------------
 h   - hammer-on
 p   - pull-off
 b   - bend
 pb  - pre-bend
 r   - bend release (if no number after the r, then release immediately)
 /\  - slide into or out of (from/to "nowhere")
 s   - legato slide
 S   - shift slide
  - natural harmonic
[n]  - artificial harmonic
n(n) - tapped harmonic
 ~   - vibrato
 tr  - trill
 T   - tap
 TP  - trem. picking
 PM  - palm muting
\n/  - tremolo bar dip; n = amount to dip
 \n  - tremolo bar down
 n/  - tremolo bar up
/n\  - tremolo bar inverted dip
 =   - hold bend; also acts as connecting device for hammers/pulls
 <>  - volume swell (louder/softer)
 x   - on rhythm slash represents muted slash
 o   - on rhythm slash represents single note slash

Misc Legend
-----------
 |  - bar
||  - double bar
||o - repeat start
o|| - repeat end
*|  - double bar (ending)
 :  - bar (freetime)
 $  - Segno
 &  - Coda
Tempo markers -  = BPM(8/16=s8/s16), where s8 = swing 8ths, s16 = swing 16ths


***************************************************************************************
* Generated using Power Tab Editor by Brad Larsen - http://powertab.guitarnetwork.org *
***************************************************************************************

VGJam Tabs Dynasty Warriors 4 - "Parade of Death (solo)"
Tabs database last modified Tuesday, 01-Nov-2016 19:14:53 UTC.
Copyright © 1999 - 2016 VideoGameJam.com. All rights reserved.