VGJam Tabs Dynasty Warriors 4
Dynasty Warriors 4
"Avenging Battle" - Guitar tab
Platform(s):Multi-platformPlayStation 2Xbox
Composed by:MASA, Kenji Nakajo, Yasuhiro Misawa, Michihiko Shichi, Mahito Yakota
Soundtrack:Shin Sangokumusou 3 Original Sound Track [KECH-1233~4] (track D2-08)
Tabbed by:Vincent Bouchard
Last modified:2005-02-12
Print it:Original file (.TXT)
Hear it:MIDI file
                                 AVENGING BATTLE
As recorded by MASA, Kenji Nakajo, Yasuhiro Misawa, Michihiko Shichi, Mahito Yakota
         (From the 2004 Album SHIN SANGOKUMUSOU 3 ORIGINAL SOUND TRACK)

Music by MASA, Kenji Nakajo, Yasuhiro Misawa, Michihiko Shichi, Mahito Yakota
Transcribed by Vincent Bouchard

          C5                   Eb5                  Bb5                  G#5
     8 10 x x x x         11 13 x x x x         6 8 x x x x          4 6 x x x x

          B5                   F5                   A5
      7 9 x x x x          1 3 x x x x          5 7 x x x x

Gtr I (E A D G B E) - 'Rythm Guitar'
Gtr II (E A D G B E) - 'Lead Guitar'

  Q=98
 4/4
  Gtr I
  W          W
|----------|------|
|----------|------|
|----------|------|
|----------|------|
|----------|------|
|----------|------|


   W           W          W          W
|-----------|-----------|----------|------|
|-----------|-----------|----------|------|
|-----------|-----------|----------|------|
|-----------|-----------|----------|------|
|-10--------|-13--------|-8--------|-6----|
|--8--------|-11--------|-6--------|-4----|


     E  S  S  E  S  S  E  S  S  E  S  S    E  S  S  E  S  S  E  S  S  E  S  S
||--------------------------------------|--------------------------------------|
||o-------------------------------------|--------------------------------------|
||--------------------------------------|--------------------------------------|
||--------------------------------------|--------------------------------------|
||o-10-10-10-10-10-10-10-10-10-10-10-10-|-13-13-13-13-13-13-13-13-13-13-13-13--|
||---8--8--8--8--8--8--8--8--8--8--8--8-|-11-11-11-11-11-11-11-11-11-11-11-11--|


  E S S E S S E S S E S S   E S S E S S E S S E S S
|-------------------------|--------------------------||
|-------------------------|-------------------------o||
|-------------------------|--------------------------||
|-------------------------|--------------------------||
|-8-8-8-8-8-8-8-8-8-8-8-8-|-6-6-6-6-6-6-6-6-6-6-6-6-o||
|-6-6-6-6-6-6-6-6-6-6-6-6-|-4-4-4-4-4-4-4-4-4-4-4-4--||


    C5                           Eb5
    Gtr I
    E  S S E S S E S S E   S S   E S S E S S E  S S E  S  S
    |  | | | | | | | | |   | |   | | | | | | |  | | |  |  |
    /  / / / / / / / / /   / /   / / / / / / /  / / /  /  /

    Gtr II
    H.                 S S S S   H           Q.       +S  T T
||-----------------------------|------------------------------|
||o--------------------------6-|-8----------------------------|
||--5------------------5-7-8---|-------------5--------(5)-5-4-|
||-----------------------------|------------------------------|
||o----------------------------|------------------------------|
||-----------------------------|------------------------------|


  Bb5                          G#5
  E  S S E S S E S S E   S S   E  S S E S S E S S E S S
  |  | | | | | | | | |   | |   |  | | | | | | | | | | |
  /  / / / / / / / / /   / /   /  / / / / / / / / / / /

  H.                 S S S S   Q.       S S H
|----------------------------|--------------------------|
|----------------------------|-6------------------------|
|----------------------5-7-8-|----------8-7-8-----------|
|-8------------------8-------|--------------------------|
|----------------------------|--------------------------|
|----------------------------|--------------------------|


  C5                           Eb5
  E  S S E S S E S S E   S S   E  S S E S S E S S E     S S
  |  | | | | | | | | |   | |   |  | | | | | | | | |     | |
  /  / / / / / / / / /   / /   /  / / / / / / / / /     / /

  H.                 S S S S   H.                 S  S  S S
|----------------------------|----------------------------8--|
|--------------------------6-|-8------------------8-10-12----|
|-5------------------5-7-8---|-------------------------------|
|----------------------------|-------------------------------|
|----------------------------|-------------------------------|
|----------------------------|-------------------------------|


  Bb5                                          G#5
   E     S S   E    S  S  E  S S E   S  S      E S S E S S E S S E S S
   |     | |   |    |  |  |  | | |   |  |      | | | | | | | | | | | |
   /     / /   /    /  /  /  / / /   /  /      / / / / / / / / / / / /

   Q          +E   +E     Q.        +S  T  T   W
|-11b13======(11)r(11)---10--------(10)-8-10-|-8------------------------||
|--------------------------------------------|-------------------------o||
|--------------------------------------------|--------------------------||
|--------------------------------------------|--------------------------||
|--------------------------------------------|-------------------------o||
|--------------------------------------------|--------------------------||


    Gtr I
    PM-----------------------------------|
    S  S S  S S  S S  S S  S S  S S  S S  S  8x
||--8---------8-11-8----8---------8-11-8-----||
||o---11-8-11--------11---11-8-11--------11-o||
||-------------------------------------------||
||-------------------------------------------||
||o-----------------------------------------o||
||-------------------------------------------||


    C5                          Eb5
    Gtr I
    E  S S E S S E  S S E S S   E S S  E S S  E S S E   S S
    |  | | | | | |  | | | | |   | | |  | | |  | | | |   | |
    /  / / / / / /  / / / / /   / / /  / / /  / / / /   / /

    Gtr II
    Q.       S S Q.       S S   Q      Q      Q     S S S S
||----------------------------|-----------------------------|
||o-6-----------------------6-|-8-----/8----------------6-8-|
||-----------8-7-8--------8---|--------------\5-----5-8-----|
||----------------------------|-----------------------------|
||o---------------------------|-----------------------------|
||----------------------------|-----------------------------|


  G#5                         C5           B5
  E  S S E S S E  S S E S S   E S S  E S S E S S E S S
  |  | | | | | |  | | | | |   | | |  | | | | | | | | |
  /  / / / / / /  / / / / /   / / /  / / / / / / / / /

  Q.       S S Q.       S S   Q      Q     H            4x
|-6-----------------------6-|-8-----/8-----7------------||
|----------9-8-9--------9---|--------------------------o||
|---------------------------|---------------------------||
|---------------------------|---------------------------||
|---------------------------|--------------------------o||
|---------------------------|---------------------------||


    Gtr I
    PM-----------------------------------|
    S  S S  S S  S S  S S  S S  S S  S S  S  4x
||--8---------8-11-8----8---------8-11-8-----||
||o---11-8-11--------11---11-8-11--------11-o||
||-------------------------------------------||
||-------------------------------------------||
||o-----------------------------------------o||
||-------------------------------------------||


    C5                           Eb5
    Gtr I
    E  S S E S S E S S E   S S   E S S E S S E  S S E  S  S
    |  | | | | | | | | |   | |   | | | | | | |  | | |  |  |
    /  / / / / / / / / /   / /   / / / / / / /  / / /  /  /

    Gtr II
    H.                 S S S S   H           Q.       +S  T T
||-----------------------------|------------------------------|
||o--------------------------6-|-8----------------------------|
||--5------------------5-7-8---|-------------5--------(5)-5-4-|
||-----------------------------|------------------------------|
||o----------------------------|------------------------------|
||-----------------------------|------------------------------|


  Bb5                          G#5
  E  S S E S S E S S E   S S   E  S S E S S E S S E S S
  |  | | | | | | | | |   | |   |  | | | | | | | | | | |
  /  / / / / / / / / /   / /   /  / / / / / / / / / / /

  H.                 S S S S   Q.       S S H
|----------------------------|--------------------------|
|----------------------------|-6------------------------|
|----------------------5-7-8-|----------8-7-8-----------|
|-8------------------8-------|--------------------------|
|----------------------------|--------------------------|
|----------------------------|--------------------------|


  C5                           Eb5
  E  S S E S S E S S E   S S   E  S S E S S E S S E     S S
  |  | | | | | | | | |   | |   |  | | | | | | | | |     | |
  /  / / / / / / / / /   / /   /  / / / / / / / / /     / /

  H.                 S S S S   H.                 S  S  S S
|----------------------------|----------------------------8--|
|--------------------------6-|-8------------------8-10-12----|
|-5------------------5-7-8---|-------------------------------|
|----------------------------|-------------------------------|
|----------------------------|-------------------------------|
|----------------------------|-------------------------------|


  Bb5                                          G#5
   E     S S   E    S  S  E  S S E   S  S      E S S E S S E S S E S S
   |     | |   |    |  |  |  | | |   |  |      | | | | | | | | | | | |
   /     / /   /    /  /  /  / / /   /  /      / / / / / / / / / / / /

   Q          +E   +E     Q.        +S  T  T   W
|-11b13======(11)r(11)---10--------(10)-8-10-|-8------------------------||
|--------------------------------------------|-------------------------o||
|--------------------------------------------|--------------------------||
|--------------------------------------------|--------------------------||
|--------------------------------------------|-------------------------o||
|--------------------------------------------|--------------------------||


    Gtr I
    PM-----------------------------------|
    S  S S  S S  S S  S S  S S  S S  S S  S  8x
||--8---------8-11-8----8---------8-11-8-----||
||o---11-8-11--------11---11-8-11--------11-o||
||-------------------------------------------||
||-------------------------------------------||
||o-----------------------------------------o||
||-------------------------------------------||


  C5                                Eb5
  Gtr I
   E S S   E     S S E S S E  S S    E S S   E     S S E  S S E   S S
   | | |   |     | | | | | |  | |    | | |   |     | | |  | | |   | |
   / / /   /     / / / / / /  / /    / / /   /     / / /  / / /   / /

  Gtr II
   Q      +Q         Q     E  S S    Q      +Q         Q.         S S
|-10-----(10)b11-----8-----8----8-|-10-----(10)b11--------------------|
|----------------------------11---|--------------------8--------/11-8-|
|---------------------------------|-----------------------------------|
|---------------------------------|-----------------------------------|
|---------------------------------|-----------------------------------|
|---------------------------------|-----------------------------------|


  F5
    E     S S  E    S S  E S S   E    S S
    |     | |  |    | |  | | |   |    | |
    /     / /  /    / /  / / /   /    / /

                                    PM  PM
    S  S  S S  S  S S S  Q      +S  S S S
|-----------------------------------------|
|-/11-\8----8-----------------------------|
|--------11---11-10-8-7---------------8---|
|-----------------------10-----(10)-8---8-|
|-----------------------------------------|
|-----------------------------------------|


  Bb5             A5
   E S S  E   S S E     S   S      E  S  S
   | | |  |   | | |     |   |      |  |  |
   / / /  /   / / /     /   /      /  /  /

            PM------|
   Q      S S S S S  S  S  +S      E.    T T
|---------------------------------------------|
|---------------------------------------------|
|-------------8---8-10-11-(11)b12r11----10-8--|
|-10-----10-8---8-----------------------------|
|---------------------------------------------|
|---------------------------------------------|


  C5                                  Eb5
   E S S  E    S S  E S S  E    S S    E    S S  E    S S  E   S  S   E   S S
   | | |  |    | |  | | |  |    | |    |    | |  |    | |  |   |  |   |   | |
   / / /  /    / /  / / /  /    / /    /    / /  /    / /  /   /  /   /   / /

   Q      S S  S S  Q      S S  S S    S S  S S  S S  S S  S S S +S  +E   S S
|-----------------------------------|--------------8-11-8----8-8-(8)-(8)-11-8-|
|---------------------------------8-|-11-8----8-11--------11------------------|
|----------------8-10-----10-8-10---|------10---------------------------------|
|-10-----10-8-10--------------------|-----------------------------------------|
|-----------------------------------|-----------------------------------------|
|-----------------------------------|-----------------------------------------|


  F5
   E    S  S E  S S  E S S E  S S
   |    |  | |  | |  | | | |  | |
   /    /  / /  / /  / / / /  / /

   E.      S E  S S  Q     E  E
|-11b13r==11-8-11-8-11-----8------|
|----------------------------11---|
|---------------------------------|
|---------------------------------|
|---------------------------------|
|---------------------------------|


  Bb5                     A5
   E    S S  E    S  S     E S S  E     S  S
   |    | |  |    |  |     | | |  |     |  |
   /    / /  /    /  /     / / /  /     /  /

   Q         E.      T  T  Q      S  S  S  S
|-14b15-----14b15---14p12h14-----13-----------|
|-----------------------------------16-13-13--|
|---------------------------------------------|
|---------------------------------------------|
|---------------------------------------------|
|---------------------------------------------|


  C5
   E     S   S   E    S    S  E     S   S   E    S    S
   |     |   |   |    |    |  |     |   |   |    |    |
   /     /   /   /    /    /  /     /   /   /    /    /

                 |---3---|                  |---3---|
   E.       +S   E  E    E    E.       +S   E  E    E
|-16pb18r==(16)-16-14---13---16pb18r==(16)-16-14---13---|
|-------------------------------------------------------|
|-------------------------------------------------------|
|-------------------------------------------------------|
|-------------------------------------------------------|
|-------------------------------------------------------|


  Eb5
   E     S   S   E    S    S  E         S  S   E      S  S
   |     |   |   |    |    |  |         |  |   |      |  |
   /     /   /   /    /    /  /         /  /   /      /  /

                 |---3---|    |--3--|
   E.       +S   E  E    E    S  S  S  +E     +S   S  S  S
|-16pb18r==(16)-16-14---13----------------------------------|
|----------------------------16-18-16-(16)---(16)-13----13--|
|----------------------------------------------------15-----|
|-----------------------------------------------------------|
|-----------------------------------------------------------|
|-----------------------------------------------------------|


  F5
    E S S  E     S S  E     S  S  E     S  S
    | | |  |     | |  |     |  |  |     |  |
    / / /  /     / /  /     /  /  /     /  /

    Q      S  S  E    S  S  S  S  S  S  S  S
|-----------------------13----------------15-|
|-/13--------13-16---13----13-16-13-16-18----|
|---------15---------------------------------|
|--------------------------------------------|
|--------------------------------------------|
|--------------------------------------------|


  Bb5                 A5
   E    S S  E    S S  E     S  S  E     S  S
   |    | |  |    | |  |     |  |  |     |  |
   /    / /  /    / /  /     /  /  /     /  /

   Q         Q         S  S  S  S  S  S  S  S
|-17b18-----17b18-----18-15-18-15-18-15-------|
|---------------------------------------18-17-|
|---------------------------------------------|
|---------------------------------------------|
|---------------------------------------------|
|---------------------------------------------|


  C5
   E           S     S     E           S     S     E           S     S     E           S     S
   |           |     |     |           |     |     |           |     |     |           |     |
   /           /     /     /           /     /     /           /     /     /           /     /

   T  T  T  T  T  T  T  T  T  T  T  T  T  T  T  T  T  T  T  T  T  T  T  T  T  T  T  T  T  T  T  T
|----------15-18-15----------------15-18-15----------------15-18-15----------------15-18-15-------|
|-15-17-18----------18-17-15-17-18----------18-17-15-17-18----------18-17-15-17-18----------18-17-|
|-------------------------------------------------------------------------------------------------|
|-------------------------------------------------------------------------------------------------|
|-------------------------------------------------------------------------------------------------|
|-------------------------------------------------------------------------------------------------|


  Eb5
   E           S     S     E           S     S     E           S     S     E           S     S
   |           |     |     |           |     |     |           |     |     |           |     |
   /           /     /     /           /     /     /           /     /     /           /     /

   T  T  T  T  T  T  T  T  T  T  T  T  T  T  T  T  T  T  T  T  T  T  T  T  T  T  T  T  T  T  T  T
|----------15-18-15----------------15-18-15----------------15-18-15----------------15-18-15-------|
|-15-17-18----------18-17-15-17-18----------18-17-15-17-18----------18-17-15-17-18----------18-17-|
|-------------------------------------------------------------------------------------------------|
|-------------------------------------------------------------------------------------------------|
|-------------------------------------------------------------------------------------------------|
|-------------------------------------------------------------------------------------------------|


  F5
   E           S     S     E           S     S     E           S     S     E           S     S
   |           |     |     |           |     |     |           |     |     |           |     |
   /           /     /     /           /     /     /           /     /     /           /     /

   T  T  T  T  T  T  T  T  T  T  T  T  T  T  T  T  T  T  T  T  T  T  T  T  T  T  T  T  T  T  T  T
|----------15-18-15----------------15-18-15----------------15-18-15----------------15-18-15-------|
|-15-17-18----------18-17-15-17-18----------18-17-15-17-18----------18-17-15-17-18----------18-17-|
|-------------------------------------------------------------------------------------------------|
|-------------------------------------------------------------------------------------------------|
|-------------------------------------------------------------------------------------------------|
|-------------------------------------------------------------------------------------------------|


  Bb5                               A5
   E           S     S     E    S S  E    S S  E    S S
   |           |     |     |    | |  |    | |  |    | |
   /           /     /     /    / /  /    / /  /    / /

   T  T  T  T  T  T  T  T  Q         Q         Q
|----------15-18-15-18-20-20b22-----20b22-----20b22-----|
|-15-17-18----------------------------------------------|
|-------------------------------------------------------|
|-------------------------------------------------------|
|-------------------------------------------------------|
|-------------------------------------------------------|


  C5                         Eb5
   E S S E S S E S S E S S   E S S E S S E S S E S S
   | | | | | | | | | | | |   | | | | | | | | | | | |
   / / / / / / / / / / / /   / / / / / / / / / / / /

   W                         W
|-20-----------------------|-------------------------|
|--------------------------|-------------------------|
|--------------------------|-------------------------|
|--------------------------|-------------------------|
|--------------------------|-------------------------|
|--------------------------|-------------------------|


  Bb5                       G#5
  E S S E S S E S S E S S   E S S E S S E S S E S S
  | | | | | | | | | | | |   | | | | | | | | | | | |
  / / / / / / / / / / / /   / / / / / / / / / / / /

  W                         W
|-------------------------|-------------------------|
|-------------------------|-------------------------|
|-------------------------|-------------------------|
|-------------------------|-------------------------|
|-------------------------|-------------------------|
|-------------------------|-------------------------|


  C5                        Eb5
  E S S E S S E S S E S S   E S S E S S E S S E S S
  | | | | | | | | | | | |   | | | | | | | | | | | |
  / / / / / / / / / / / /   / / / / / / / / / / / /

  W                         W
|-------------------------|-------------------------|
|-------------------------|-------------------------|
|-------------------------|-------------------------|
|-------------------------|-------------------------|
|-------------------------|-------------------------|
|-------------------------|-------------------------|


  Bb5                       G#5
  E S S E S S E S S E S S   E S S E S S E S S E S S
  | | | | | | | | | | | |   | | | | | | | | | | | |
  / / / / / / / / / / / /   / / / / / / / / / / / /

  W                         W
|-------------------------|-------------------------*|
|-------------------------|-------------------------*|
|-------------------------|-------------------------*|
|-------------------------|-------------------------*|
|-------------------------|-------------------------*|
|-------------------------|-------------------------*|


Duration Legend
---------------
W - whole; H - half; Q - quarter; E - 8th; S - 16th; T - 32nd; X - 64th; a - acciaccatura
+ - note tied to previous; . - note dotted; .. - note double dotted
Uncapitalized letters represent notes that are staccato (1/2 duration)
Irregular groupings are notated above the duration line
Duration letters will always appear directly above the note/fret number it represents the
duration for.  Duration letters with no fret number below them represent rests.  Multi-
bar rests are notated in the form Wxn, where n is the number of bars to rest for.  Low
melody durations appear below the staff

Tablature Legend
----------------
 h   - hammer-on
 p   - pull-off
 b   - bend
 pb  - pre-bend
 r   - bend release (if no number after the r, then release immediately)
 /\  - slide into or out of (from/to "nowhere")
 s   - legato slide
 S   - shift slide
  - natural harmonic
[n]  - artificial harmonic
n(n) - tapped harmonic
 ~   - vibrato
 tr  - trill
 T   - tap
 TP  - trem. picking
 PM  - palm muting
\n/  - tremolo bar dip; n = amount to dip
 \n  - tremolo bar down
 n/  - tremolo bar up
/n\  - tremolo bar inverted dip
 =   - hold bend; also acts as connecting device for hammers/pulls
 <>  - volume swell (louder/softer)
 x   - on rhythm slash represents muted slash
 o   - on rhythm slash represents single note slash

Misc Legend
-----------
 |  - bar
||  - double bar
||o - repeat start
o|| - repeat end
*|  - double bar (ending)
 :  - bar (freetime)
 $  - Segno
 &  - Coda
Tempo markers -  = BPM(8/16=s8/s16), where s8 = swing 8ths, s16 = swing 16ths


***************************************************************************************
* Generated using Power Tab Editor by Brad Larsen - http://powertab.guitarnetwork.org *
***************************************************************************************

VGJam Tabs Dynasty Warriors 4 - "Avenging Battle"
Tabs database last modified Tuesday, 01-Nov-2016 19:14:53 UTC.
Copyright © 1999 - 2016 VideoGameJam.com. All rights reserved.