VGJam Tabs Silent Hill 2
Silent Hill 2
"Overdose Delusion" - Guitar tab
Platform(s):PlayStation 2
Composed by:Akira Yamaoka
Soundtrack:Silent Hill 2 Original Soundtracks [KMCA-120] (track 28)
Tabbed by:matrix
Last modified:2004-09-01
Print it:Original file (.TXT)
Hear it:MIDI file
Playstation 2 - Silent Hill 2 - 'Overdose Delusion'
composed by Akira Yamaoka
Credits track for 'Leave' ending

I hadn't seen a tab anywhere for this song so I decided to tab it out.
My first tab but I hope there's no problems with it.
tabbed by matrix@engramstudio.com
Comments/Corrections/Suggestions- email me

Key:
| measure (not always included)
9/10 slide between notes
/5 slide up to
///\\\ pick scrape ( /:up  \:down)
(3) quiet/optional note

Riff 1
  Emadd11
e|-----------------------------------------------------------------
B|-----------------------------------------------------------------
G|-------------2---------------2---------------2---------------2---
D|---------5-----------5---------------5---------------5---4-5-----
A|-----2-------------------2---------------2-----------------------
E|-0--------------------------------------------------------------- repeat 4x
  let ring -----------------------------------------------------'

SECTION A

Riff 1 continues (00:18)
add Riff 2:
e|-------------|-------------------------------------------------------------------
B|-------------|-8---------------10--------------8-------------10--------------8---
G|-----------9-|---------9---------------9-------------9---------------9-----------
D|-------9-----|-------------9---------------9-------------9---------------9-------
A|-------------|-------------------------------------------------------------------
E|-------------|------------------------------------------------------------------- repeat 2x

Riff 1 and 2 continue
Lead:
e|-----------------------------------------------------------------
B|-----------------------------------------------------------------
G|-----------------/9---11------7----------------------------------
D|--/9----------------------------------9--------------------------
A|-----------------------------------------------------------------
E|-----------------------------------------------------------------

e|-----------------------------------------------------------------
B|-----------------------------------------------------------------
G|-----------------/9---11----11h12-----11-------7-----------------
D|--/9-------------------------------------------------------------
A|-----------------------------------------------------------------
E|-----------------------------------------------------------------

(Riff 1 and 2 transpose up to Amadd11)
Lead:
e|------------------------------------------------14---------------
B|------------------------------15--15/17--------------------------
G|------12----14-----16--12----------------------------------------
D|--/14----14------------------------------------------------------
A|-----------------------------------------------------------------
E|-----------------------------------------------------------------

(Riff 1 and 2 transpose back to Emadd11)
e|--14h15p14------------------------------------------------------
B|------------------15--------15----15/17--------------------------
G|-----------------------------------------------------------------
D|-----------------------------------------------------------------
A|-----------------------------------------------------------------
E|-----------------------------------------------------------------

repeat SECTION A once

SECTION B
(02:02)
Guitar 1
e|-----------------------------------------------------------------
B|-----------------------------------------------------------------
G|-----------3-3-3-3---------3-3-3-3---------3-3-3-3-------3-3-3---
D|-2-2-2-2---2-2-2-2-2-2-2---2-2-2-2-2-2-2---2-2-2-2-2-2---2-2-2---
A|-2-2-2-2---------2-2-2-2---------2-2-2-2---------2-2-2-----------
E|-0-0-0-0-0-------0-0-0-0---------0-0-0-0---------0-0-0-----------
                               (Guitar 2 pick scrape:   ////\\\\)

Guitars 1&2
e|-----------------------------------------------------------------
B|-----------------------------------------------------------------
G|-3---------3-3-3-3---------3-3-3-3---------3-3-3-3-------3-3-3---
D|-2-2-2-2---2-2-2-2-2-2-2---2-2-2-2-2-2-2---2-2-2-2-2-2---2-2-2---
A|-2-2-2-2---------2-2-2-2---------2-2-2-2---------2-2-2-----------
E|-0-0-0-0---------0-0-0-0---------0-0-0-0---------0-0-0-----------

SECTION C
(02:21)
Guitars 1&2
e|-----------------------------------------------------------------
B|-----------------------------------------------------------------
G|-----------------------3---(3)-----------------------------------
D|-4---4\3-3-3-3-2-------2----2-2-2--------------------------------
A|-4---4\3-3-3-3-2-------2----2-2-2--------------------------------
E|-2---2\1-1-1-1-0--------------0-0-------------------------------- x3

e|-----------------------------------------------------------------
B|-----------------------------------------------------------------
G|-----------------------------------------------------------------
D|-4---4\3-3-3-3-2-------------------------------------------------
A|-4---4\3-3-3-3-2-------------------------------------------------
E|-2---2\1-1-1-1-0------------------------------------------------- 
                 let ring

SECTION D
(02:40)
Riff 1
Guitar 1
e|-------------------------------------
B|-------------------------------------
G|-------------------------------------
D|-----5--------4-------4---2----------
A|---2--------2-------2---2------------
E|-0--------0-------------------------- x2

Riff 1 repeats indefinitely
Guitar 2 enters with E5
Guitar 3 does.. some kind of droning in Emin at position VII
Fade out
VGJam Tabs Silent Hill 2 - "Overdose Delusion"
Tabs database last modified Tuesday, 01-Nov-2016 19:14:53 UTC.
Copyright © 1999 - 2016 VideoGameJam.com. All rights reserved.