VGJam Tabs Dynasty Warriors 4
Dynasty Warriors 4
"Look Back on Your Way" - Guitar tab
Platform(s):Multi-platformPlayStation 2Xbox
Composed by:MASA, Kenji Nakajo, Yasuhiro Misawa, Michihiko Shichi, Mahito Yakota
Soundtrack:Shin Sangokumusou 3 Original Sound Track [KECH-1233~4] (track D2-16)
Tabbed by:Vincent Bouchard
Last modified:2005-08-10
Print it:Original file (.TXT)
Hear it:MIDI file
                              LOOK BACK ON YOUR WAY
                        As recorded by Dynasty Warriors 4
         (From the 2004 Album SHIN SANGOKUMUSOU 3 ORIGINAL SOUND TRACK)

Music by MASA, Kenji Nakajo, Yasuhiro Misawa, Michihiko Shichi, Mahito 
Yakota
Transcribed by Vincent Bouchard

Gtr I (E A D G B E) - 'Flute'
Gtr II (E A D G B E) - 'Lead Guitar'
Gtr III (E A D G B E) - 'Second Guitar'

Flute Intro
  Q=65
4/4
  Gtr I
   E.  S  E  E  E.  S  e  S  S    E  S  S  S  S   S  S  Q.    S  S
|------------------------------|-----------------------------------|
|-17--20-------17--20----------|----------------/20----------------|
|--------19-16--------19-19-16-|-------16-----------19-------------|
|------------------------------|-19-19----19-17--------17----17-19-|
|------------------------------|-----------------------------------|
|------------------------------|-----------------------------------|


   E  E  E  S  S  E  S  S  S  S  S  S    Q.     S  S  E  S  S  S  S  S  S
|-------------------------------------|-----------------------------------|
|----20-20-17-------------17----17-20-|-------/17-------------17----17-20-|
|-16----------19-19s16s19----19-------|-19--------19-19S16-19----19-------|
|-------------------------------------|-----------------------------------|
|-------------------------------------|-----------------------------------|
|-------------------------------------|-----------------------------------|


Guitar Intro
  Gtr II
  Q  S S S S Q    Q    Q  S S S S Q    S S E
|--------------------|-------------------------|
|----7---------------|----7----------------8b9-|
|------9-7---7b9--7--|------9-7---7b9--7-9-----|
|----------9---------|----------9--------------|
|--------------------|-------------------------|
|--------------------|-------------------------|


  E E S S S S E    +S   E S S S   S  e e  S  Q.   Q
|-------------------------------|--------------------|
|-----7-------------------------|--------------------|
|-9-----9-7---7b9==(7)r-7-7-----|--------------------|
|-----------9---------------9-7-|-7------------------|
|-------------------------------|---10-7----10-------|
|-------------------------------|--------10----------|


Theme 1
                                                       ~
  E  S E  S E  S S S  S E S   S    E +E     S E   T  T H
|--------------------------------|--------------------------|
|--------------------------------|---------10---------------|
|--------------------------------|-7-(7)b9----7b9-7----7----|
|-7----7----7----7-7----7-7-[10]-|------------------10------|
|---10---10---10-----10----------|--------------------------|
|--------------------------------|--------------------------|


  E  S E  S E  S S S  S E S  S
|------------------------------|
|------------------------------|
|------------------------------|
|-7----7----7----7-7----7-7-10-|
|---10---10---10-----10--------|
|------------------------------|


                           |-3--| |-3--|         |-3--|  |-3--|
  S   T  T T T T T T T T T T  T T T  T T S  T T  T T  T  T T  T  S T  T E
|--------------------------------------------------------------------------|
|-------10---8-------------------------------------------------------------|
|-7b9-9----9---9-8-7-8-9-8-7------7------7---------------------------------|
|----------------------------10-7---10-7---10-7----------------------------|
|-----------------------------------------------10-7----10-7----10-7-------|
|----------------------------------------------------10------10------10-7--|


                                                                      ~~
  E  S E  S E  S S S  S E  S     S   E   +E   S S S S  S S +S     +S  E. S
|----------------------------------|--------------8------------------------|
|----------------------------------|---------10-------10--------------8----|
|----------------------------------|-7b9r(7)----9---9----9-(9)b11r(9)----7-|
|-7----7----7----7-7----7-10b12-10-|---------------------------------------|
|---10---10---10-----10------------|---------------------------------------|
|----------------------------------|---------------------------------------|


                                       ~~~~~                 ~
  E  S S  E S  S S  S S S S  S S  S    Q      S     +S  S  S H
|------------------------------8-10-|-10b11--10b11r(10)-8-10-8----|
|-------------------------8-10------|-----------------------------|
|----------------7----7-9-----------|-----------------------------|
|-7----7-10-7-10---10---------------|-----------------------------|
|---10------------------------------|-----------------------------|
|-----------------------------------|-----------------------------|


   Theme 2
            ~~
    Q  Q    Q.   S  S    E     S S S  S S  S S e e  S S  S
||--------------------|------------------------------------|
||o-------------------|------------------------------------|
||-----7b9--7---------|------------------------------------|
||---------------9-10-|-10b12-10-9-7---------7-9-7---------|
||o-------------------|--------------10-9-10-------10-7----|
||--------------------|---------------------------------10-|


  1.
  ~       ~
  Q  Q    Q  +S  S  S S
|-----------------------|
|-----------------------|
|----7b9--7--(7)------7-|
|----------------9-10---|
|-7---------------------|
|-----------------------|


                                                        ~
  S +S     +S  +S     +S  +S     +S  +S     +S   S S  S Q
|-----------------------------------------------------------||
|----------------------------------------------------------o||
|-9-(9)b11r(9)-(9)b11r(9)-(9)b11r(9)-(9)b11r(9)----7----7---||
|-----------------------------------------------10---10-----||
|----------------------------------------------------------o||
|-----------------------------------------------------------||


  2.
          ~                                      ~~~~~~
  Q  Q    Q  +S  S S S   S +S    +S  +S    +S  S E +H
|----------------------|----------------------------------|
|----------------------|-7-(7)b9r(7)-(7)b9r(7)------------|
|----7b9--7--(7)---7-9-|-----------------------7-9-(9)----|
|----------------9-----|----------------------------------|
|-7--------------------|----------------------------------|
|----------------------|----------------------------------|


Guitar Solo
          ~~
   Q      Q   T  T  T  T  T  T  T  T  E.  T  T
|-12b14--12-----10-12-14-12-10-12p10h12-----10-|
|------------12--------------------------12----|
|----------------------------------------------|
|----------------------------------------------|
|----------------------------------------------|
|----------------------------------------------|


                                   |--3--|
   S  S  S  S  +E.     +T   T  Q   E  E  E
|-12-10-12-14-(14)b16r(14)-10-12--10-12-10--|
|-------------------------------------------|
|-------------------------------------------|
|-------------------------------------------|
|-------------------------------------------|
|-------------------------------------------|


   ~~
   Q   S  T  T  T  T  T  T  T  T  T  T  T  T  T  T T  T  T T  T  T T  T
|-13--13-12h13-10h12----10----------------------------------------------|
|--------------------13----12h13-10h12----10----------------------------|
|--------------------------------------12----10h12-9h10----9------------|
|-------------------------------------------------------12---10h12-9h10-|
|-----------------------------------------------------------------------|
|-----------------------------------------------------------------------|


   Q   +S   S  S  S  S  S  +S      +S   E.  S
|-------------------10-12-(12)b14r(12)-10-----|
|----------------10------------------------13-|
|-------------11------------------------------|
|-12--(12)-12---------------------------------|
|---------------------------------------------|
|---------------------------------------------|


   Q   T  T  T  T  T  T  S  S  S  S  S  +E.  T  T
|-----------10-12----10-12-14-12-14-15-(15)-12-14-|
|-12--12-13-------13------------------------------|
|-------------------------------------------------|
|-------------------------------------------------|
|-------------------------------------------------|
|-------------------------------------------------|


   S  S  S     +S   S  S  E  +S   S  S  S  E  E
|-15-17-17b19r(17)-15----15-(15)----15----15-17-|
|---------------------17---------17----17-------|
|-----------------------------------------------|
|-----------------------------------------------|
|-----------------------------------------------|
|-----------------------------------------------|


   E     S  S  S  S  E  +S   S  S  S  S  S  S  S
|-17b19-17-15-14----------------------------------|
|----------------15-------------------------------|
|-------------------14-(14)----14-----------------|
|---------------------------17----16-17-14-16-----|
|---------------------------------------------17--|
|-------------------------------------------------|


   H     +S   T  T  S  S  S     S  S     +T   T    E  +E   H.
|-----------------------------------------------|----------------*|
|-----------------------------------------------|----------------*|
|------------------------14b15----15b17r(15)----|----------------*|
|-14----(14)-------14-17-------17------------17-|-14-(14)\-------*|
|------------14-17------------------------------|----------------*|
|-----------------------------------------------|----------------*|


Duration Legend
---------------
W - whole; H - half; Q - quarter; E - 8th; S - 16th; T - 32nd; X - 64th; a - 
acciaccatura
+ - note tied to previous; . - note dotted; .. - note double dotted
Uncapitalized letters represent notes that are staccato (1/2 duration)
Irregular groupings are notated above the duration line
Duration letters will always appear directly above the note/fret number it 
represents the
duration for.  Duration letters with no fret number below them represent 
rests.  Multi-
bar rests are notated in the form Wxn, where n is the number of bars to rest 
for.  Low
melody durations appear below the staff

Tablature Legend
----------------
h   - hammer-on
p   - pull-off
b   - bend
pb  - pre-bend
r   - bend release (if no number after the r, then release immediately)
/\  - slide into or out of (from/to "nowhere")
s   - legato slide
S   - shift slide
  - natural harmonic
[n]  - artificial harmonic
n(n) - tapped harmonic
~   - vibrato
tr  - trill
T   - tap
TP  - trem. picking
PM  - palm muting
\n/  - tremolo bar dip; n = amount to dip
\n  - tremolo bar down
n/  - tremolo bar up
/n\  - tremolo bar inverted dip
=   - hold bend; also acts as connecting device for hammers/pulls
<>  - volume swell (louder/softer)
x   - on rhythm slash represents muted slash
o   - on rhythm slash represents single note slash

Misc Legend
-----------
|  - bar
||  - double bar
||o - repeat start
o|| - repeat end
*|  - double bar (ending)
:  - bar (freetime)
$  - Segno
&  - Coda
Tempo markers -  = BPM(8/16=s8/s16), where s8 = swing 8ths, 
s16 = swing 16ths


***************************************************************************************
* Generated using Power Tab Editor by Brad Larsen - 
http://powertab.guitarnetwork.org *
***************************************************************************************


VGJam Tabs Dynasty Warriors 4 - "Look Back on Your Way"
Tabs database last modified Tuesday, 01-Nov-2016 19:14:53 UTC.
Copyright © 1999 - 2016 VideoGameJam.com. All rights reserved.