VGJam Tabs Prince of Persia: The Sands of Time
Prince of Persia: The Sands of Time
"Time Only Knows" - Guitar tab
Platform(s):Multi-platformGameCubePlayStation 2Xbox
Composed by:Stuart Chatwood
Soundtrack:Prince of Persia: Sands of Time Original Sound Track [SCDC-00383] (track 36)
Tabbed by:Deezer
Last modified:2005-02-25
Print it:Original file (.TXT)
#----------------------------------PLEASE NOTE---------------------------------#
#This file is the author's own work and represents their interpretation of the #
#song. You may only use this file for private study, scholarship, or research. #
#------------------------------------------------------------------------------#

Prince of Persia: The Sands of Time (GameCube/Xbox/PS2)
"Time Only Knows"

Originally composed by: Stuart Chatwood
------------------------------------------------------------------------------
Tabbed by: Deezer (vgjam.staff AT gmail DOT com)
For http://www.kontek.net/vgjam/
------------------------------------------------------------------------------

This is the song that plays during the credits. Vocals by Cindy Gomez.

Standard tuning - EADGBe


Intro:
======

  F
|------------------------------------------------------
|-----6---6---4---6-------------------4-------6-7-6----
|-5-------------------------------5--------------------
|------------------------------------------------------
|------------------------------------------------------
|------------------------------------------------------

  G#                      F#      F
 -----4-------6-9-8------------------------------------|
 -6-----------------------7---9---7---6----------------|
 ------------------------------------------------------|
 ------------------------------------------------------|
 ------------------------------------------------------|
 ------------------------------------------------------| repeat

Verse:
======

  F
|----------------------------------------------------------------
|-------------------------------------------------6--------------
|-5---------------6---8---6---8---5-------------------8---5---6--
|----------------------------------------------------------------
|----------------------------------------------------------------
|----------------------------------------------------------------

  G#                      F#      F
 ----------------------------------------------------------------|
 ----------------------------------------------------------------|
 -5---------------------------6---5------------------------------|
 -----------------8---6---8--------------------------------------|
 ----------------------------------------------------------------|
 ----------------------------------------------------------------| repeat

Pre-chorus:
===========

 F
------------------------------------------------------
-----6---6---4---6-------------------4-------6-7-6----
-5-------------------------------5--------------------
------------------------------------------------------
------------------------------------------------------
------------------------------------------------------

 G#                      F#      F
-----4-------6-9-8------------------------------------
-6-----------------------7---9---7---6----------------
------------------------------------------------------
------------------------------------------------------
------------------------------------------------------
------------------------------------------------------

Chorus:
=======

|-----------------------------------------------------------------
|-----------------6-------------------------------6-----------6---
|---------8---------------8---------------8---------------8-------
|-----6-------6-------6---------------6-------6-------6-----------
|-----------------------------------------------------------------
|-----------------------------------------------------------------

 -----------------------------------------------------------------
 -----------------------------------------------------------------
 -----------------6-------8-----------------------6-------6-------
 ---------8-------------------------------8-----------------------
 -----6-------6-------6---------------6-------6-------6-------6---
 -----------------------------------------------------------------

 -----------------------------------------------------------------
 -----------------6-------4-----------------------6-------4-------
 ---------5-------------------------------5-----------------------
 -----3-------3-------3---------------3-------3-------3-------3---
 -----------------------------------------------------------------
 -----------------------------------------------------------------

 -----------------------------------------------------------------|
 -----------------------------------------------------------------|
 -----------------6-------5-----------------------6-------5-------|
 ---------5-------------------------------5-----------------------|
 -----3-------3-------3---------------3-------3-------3-----------|
 -----------------------------------------------------------------|
 
Repeat chorus and fade out.


Revision history:
 02/05/2005 - First draft.
 02/25/2005 - Tabbed the verse.

VGJam Tabs Prince of Persia: The Sands of Time - "Time Only Knows"
Tabs database last modified Tuesday, 01-Nov-2016 19:14:53 UTC.
Copyright © 1999 - 2016 VideoGameJam.com. All rights reserved.