VGJam Tabs Silent Hill 4: The Room
Silent Hill 4: The Room
"Tender Sugar" - Guitar tab
Platform(s):Multi-platformPlayStation 2Xbox
Composed by:Akira Yamaoka
Soundtrack:Silent Hill 4 -The Room- Original Soundtracks [LC-1292] (track D1-01)
Tabbed by:Deezer
Last modified:2011-04-27
Print it:Original file (.TXT)
#----------------------------------PLEASE NOTE---------------------------------#
#This file is the author's own work and represents their interpretation of the #
#song. You may only use this file for private study, scholarship, or research. #
#------------------------------------------------------------------------------#

Silent Hill 4 (Xbox/PS2)
"Tender Sugar"

Originally composed by: Akira Yamaoka
------------------------------------------------------------------------------
Tabbed by: Deezer (vgjam.staff AT gmail DOT com)
For http://www.kontek.net/vgjam/
------------------------------------------------------------------------------

Symbols used:
    \ = slide down
    / = slide up
    ~ = vibrato or sustain
  rit.= gradually slow down ("ritardando")

Tuning: Down one half step - EbAbDbGbBbeb

Vocals: Mary Elizabeth McGlynn


Intro:
======
Let ring throughout.

 (E5)
|-----------------------------------------------------------------
|-----------------------------------------------------------------
|-----------------------------------------------------------------
|---------2---------------2---------------2---------------2-------
|-----2---------------2---------------2---------------2-----------
|-0---------------0---------------0---------------0---------------

 (Esus2)
 -----------------------------------------------------------------
 -----------------------------------------------------------------
 -----------------------------------------------------------------
 ---------4---------------4---------------4---------------4-------
 -----2---------------2---------------2---------------2-----------
 -0---------------0---------------0---------------0---------------

 (Em)
 -----------------------------------------------------------------
 -----------------------------------------------------------------
 -----------------------------------------------------------------
 ---------5---------------5---------------5---------------5-------
 -----2---------------2---------------2---------------2-----------
 -0---------------0---------------0---------------0---------------

 (Esus2)
 -----------------------------------------------------------------|
 -----------------------------------------------------------------|
 -----------------------------------------------------------------|
 ---------4---------------4---------------4---------------4-------|
 -----2---------------2---------------2---------------2-----------|
 -0---------------0---------------0---------------0---------------|
 
Intro repeats, then continues behind the second guitar line:
 
|-----------------------------0---3---------------------------0---
|-----------------------------------------------------------------
|-----------------------------------------------------------------
|-----------------------------------------------------------------
|-----------------------------------------------------------------
|-----------------------------------------------------------------

 -2---------------------------------------------------------------
 -----------------------------------------------------------------
 -----------------------------------------------------------------
 -----------------------------------------------------------------
 -----------------------------------------------------------------
 -----------------------------------------------------------------

 -----------------------------0-----------------------------------
 -------------------------3-----------3---------------------------
 ---------------------0-------------------------------------------
 -----------------------------------------------------------------
 -----------------------------------------------------------------
 -----------------------------------------------------------------

 -----------------------------0-----------------------------------|
 -------------------------3-----------3---------------------------|
 ---------------------0-------------------------------------------|
 -----------------------------------------------------------------|
 -----------------------------------------------------------------|
 -----------------------------------------------------------------| x2
 
Next part:
==========


G1|-----------------------------2---------------0-----------2-------
U |-------------------------------------------------------------2---
I |-------------------------4---------------------------------------
T |---------------------4-------------------------------------------
A |-----------------------------------------------------------------
R |-----------------------------------------------------------------
  |
  | (Bm)
G2|-----------------------------------------------------------------
U |-----------------------------------------------------------------
I |-----------------------------------------------------------------
T |---------0---------------0---------------0---------------0-------
A |-----9-------9-------9-------9-------9-------9-------9-------9---
R |-7---------------7---------------7---------------7---------------


G1|-----------------------------------------------------------------
U |-----------------------------------------------------------------
I |-----------------------------------------------------------------
T |-----------------------------------------------------------------
A |-----------------------------------------------------------------
R |-----------------------------------------------------------------
  |
  | (A5)
G2|-----------------------------------------------------------------
U |-----------------------------------------------------------------
I |-----------------------------------------------------------------
T |---------7---------------7---------------7---------------7-------
A |-----7---------------7---------------7---------------7-----------
R |-5---------------5---------------5---------------5---------------

Play four times.


Then:

  Bsus2
|-2-------------------------------2-------------------------------|
|-2-------------------------------2-------------------------------|
|-4-------------------------------4-------------------------------|
|-----------------------------------------------------------------|
|-----------------------------------------------------------------|
|-----------------------------------------------------------------| x4

Chorus:
=======

  Em
|-----------------3-------------------------------3---------------
|-----------------0-------------------------------0---------------
|-----------------0-------------------------------0---------------
|-----------------2-------------------------------2---------------
|---------2-------------------------------2-----------------------
|-0-------------------------------0-------------------------------

 -----------------------------------------------------------------|
 -----------------------------------------------------------------|
 ---------0---------------0---------------0---------------0-------|
 -----4---------------4---------------4---------------4-----------|
 -5---------------5---------------5---------------5---------------|
 -----------------------------------------------------------------| x4

Then:

(C)
---------------------------------------------------------------------
---------------------------------------------------------------------
-----------------0-----------------------0-----------------------0---
-----2-----------------------2-----------------------2---------------
-3-----------3-----------3-----------3-----------3-----------3-------
---------------------------------------------------------------------

-----------------------------------------------------
-----------------------------------------------------
-----------------0-----------------------0-----------
-----2-----------------------2-----------------------
-3-----------3-----------3-----------3-----------3---
-----------------------------------------------------

 (E5)
|-----------------------------------------------------------------|
|-----------------------------------------------------------------|
|-----------------------------------------------------------------|
|---------2---------------2---------------2---------------2-------|
|-----2---------------2---------------2---------------2-----------|
|-0---------------0---------------0---------------0---------------| x4


Solo:
=====
I recommend listening to the song for the timing because I didn't spend a lot
of time on spacing here.

----------------------------------------------
----------------------------------------------
/11---12--9~----------------------------------
----------------------------------------------
----------------------------------------------
----------------------------------------------

---------------------------------------------
---------------------------------------------
-11---12--9~------11---12--9-11-12--9-11-12--
---------------------------------------------
---------------------------------------------
---------------------------------------------

----------------------------------------------
---------------12/15~-----15----------15/17~--
-12/16~---------------------------------------
----------------------------------------------
----------------------------------------------
----------------------------------------------

-------------------------------------
--17------17/20~--20-20-20\19-19-19\-
-------------------------------------
-------------------------------------
-------------------------------------
-------------------------------------

-----15---14---------15---14---------15---14-----
-/12---------12---12---------12---12---------12--
-------------------------------------------------
-------------------------------------------------
-------------------------------------------------
-------------------------------------------------

----15---14---------15---14-------14-15/17~----
-12---------12---12---------12-----------------
-----------------------------------------------
-----------------------------------------------
-----------------------------------------------
-----------------------------------------------

-17/19~---19-----19/22~------22/24~--24-24~----------------------
-----------------------------------------------------------------
-----------------------------------------------------------------
-----------------------------------------------------------------
-----------------------------------------------------------------

-0-0-0-0-0-0-0-0-0-0-0-0-0-0-0-0-0-0-0-0-0-0-0-0-0-0-0-0-0-0-0-0-
-7-7-7-8-8-5-7-7-7-8-8-5-7-8-5-7-7-7-7-8-8-5-7-7-7-8-8-5-7-8-5-7-
-----------------------------------------------------------------
-----------------------------------------------------------------
-----------------------------------------------------------------
-----------------------------------------------------------------

-10-10-10--7--7--7-10-10-10--7--7--7-10-10--7--7-
--7--7--7--7--7--7--7--7--7--7--7--7--7--7--7--7-
-------------------------------------------------
-------------------------------------------------
-------------------------------------------------
-------------------------------------------------

-10-10-10--7--7--7-10-10-10--7--7--7--7--7--7-/-
--7--7--7--7--7--7--7--7--7--7--7--7--7--7--7-/-
------------------------------------------------
------------------------------------------------
------------------------------------------------
------------------------------------------------

|-15-15-15-17-17-17-15-15-15-17-17-17-15-15-17-17-|
|-15-15-15-15-15-15-15-15-15-15-15-15-15-15-15-15-|
|-------------------------------------------------|
|-------------------------------------------------|
|-------------------------------------------------|
|-------------------------------------------------| x2

----19------17------19------17------19------17--
-17------17------17------17------17------17-----
------------------------------------------------
------------------------------------------------
------------------------------------------------
------------------------------------------------

----19------17------19------17---19\--
-17------17------17------17-----------
--------------------------------------
--------------------------------------
--------------------------------------
--------------------------------------

  Bsus2
|-2-------------------------------2-------------------------------|
|-2-------------------------------2-------------------------------|
|-4-------------------------------4-------------------------------|
|-----------------------------------------------------------------|
|-----------------------------------------------------------------|
|-----------------------------------------------------------------| x4

[Dramatic pause.]

Chorus:
=======

  Em
|-----------------3-------------------------------3---------------
|-----------------0-------------------------------0---------------
|-----------------0-------------------------------0---------------
|-----------------2-------------------------------2---------------
|---------2-------------------------------2-----------------------
|-0-------------------------------0-------------------------------

 -----------------------------------------------------------------|
 -----------------------------------------------------------------|
 ---------0---------------0---------------0---------------0-------|
 -----4---------------4---------------4---------------4-----------|
 -5---------------5---------------5---------------5---------------|
 -----------------------------------------------------------------| x4

 (C)
|-----------------------------------------------------------------|
|-----------------------------------------------------------------|
|---------0---------------0---------------0---------------0-------|
|-----2---------------2---------------2---------------2-----------|
|-3---------------3---------------3---------------3---------------|
|-----------------------------------------------------------------| x2


Outro:
======
Let ring throughout.

 (E5)
-----------------------------------------------------------------
-----------------------------------------------------------------
-----------------------------------------------------------------
---------2---------------2---------------2---------------2-------
-----2---------------2---------------2---------------2-----------
-0---------------0---------------0---------------0---------------

(Esus2)
-----------------------------------------------------------------
-----------------------------------------------------------------
-----------------------------------------------------------------
---------4---------------4---------------4---------------4-------
-----2---------------2---------------2---------------2-----------
-0---------------0---------------0---------------0---------------

(Em)
-----------------------------------------------------------------
-----------------------------------------------------------------
-----------------------------------------------------------------
---------5---------------5---------------5---------------5-------
-----2---------------2---------------2---------------2-----------
-0---------------0---------------0---------------0---------------

(Esus2)
-----------------------------------------------------------------
-----------------------------------------------------------------
-----------------------------------------------------------------
---------4---------------4---------------4---------------4-------
-----2---------------2---------------2---------------2-----------
-0---------------0---------------0---------------0---------------

(E5)
-----------------------------------------------------------------
-----------------------------------------------------------------
-----------------------------------------------------------------
---------2---------------2---------------2---------------2-------
-----2---------------2---------------2---------------2-----------
-0---------------0---------------0---------------0---------------

(Esus2)
-----------------------------------------------------------------
-----------------------------------------------------------------
-----------------------------------------------------------------
---------4---------------4---------------4---------------4-------
-----2---------------2---------------2---------------2-----------
-0---------------0---------------0---------------0---------------

(Em)
-----------------------------------------------------------------
-----------------------------------------------------------------
-----------------------------------------------------------------
---------5---------------5---------------5---------------5-------
-----2---------------2---------------2---------------2-----------
-0---------------0---------------0---------------0---------------

(Esus2)
-----------------------------------------------------------------
-----------------------------------------------------------------
-----------------------------------------------------------------
---------4---------------4---------------4---------------4-------
-----2---------------2---------------2---------------2-----------
-0---------------0---------------0---------------0---------------
 rit.

-----------------------------------------------------------------
-----------------------------------------------------------------
-----------------------------------------------------------------
-----------------------------------------------------------------
-2---------------------------------------------------------------
-----------------------------------------------------------------


Revision history:
 02/11/2005 - First draft.
 04/27/2011 - Fixed up the chorus and solo. Tabbed more parts from guitar 2.

VGJam Tabs Silent Hill 4: The Room - "Tender Sugar"
Tabs database last modified Tuesday, 01-Nov-2016 19:14:53 UTC.
Copyright © 1999 - 2016 VideoGameJam.com. All rights reserved.