VGJam Tabs Silent Hill 4: The Room
Silent Hill 4: The Room
"Confinement" - Guitar tab
Platform(s):Multi-platformPlayStation 2Xbox
Composed by:Akira Yamaoka
Soundtrack:Silent Hill 4 -The Room- Original Soundtracks [LC-1292] (track D1-05)
Tabbed by:Deezer
Last modified:2007-05-02
Print it:Original file (.TXT)
#----------------------------------PLEASE NOTE---------------------------------#
#This file is the author's own work and represents their interpretation of the #
#song. You may only use this file for private study, scholarship, or research. #
#------------------------------------------------------------------------------#


Silent Hill 4 (Xbox/PS2)
"Confinement"

Originally composed by: Akira Yamaoka
------------------------------------------------------------------------------
Tabbed by: Deezer (deezer AT videogamejam DOT com)
For http://www.videogamejam.com
------------------------------------------------------------------------------

Symbols used:
   / = slide up
   \ = slide down

Tuning: All guitars one half step down - EbAbDbGbBbeb


Intro:
======

(Guitar 1)

||----------------|----------------|----------------|----------------||
||----------------|----------------|----------------|----------------||
||----------------|----------------|----------------|----------------||
||-2--------------|-2--------------|-2--------------|-2--------------||
||-2--------------|-1--------------|-2--------------|-1--------------||
||-0--------------|-0--------------|-0--------------|-0--------------|| x2

[Acoustic bass and percussion enter]

|----------------|----------------|---------------|----------------|
|----------------|----------------|---------------|----------------|
|----------------|----------------|---------------|----------------|
|-2--------------|-2--------------|-2-------------|-2--------------|
|-2--------------|-1--------------|-2-------------|-1--------------|
|-0--------------|-0--------------|-0-------------|-0--------------|

G1|----------------|----------------|----------------|----------------|
U |----------------|----------------|----------------|----------------|
I |----------------|----------------|----------------|----------------|
T |-2--------------|-2--------------|-2--------------|-2--------------|
A |-2--------------|-1--------------|-2--------------|-1--------------|
R |-0--------------|-0--------------|-0--------------|-0--------------|
  |                                                                   |
G2|----------------|----------------|----------------|----------------|
U |----------------|----------------|----------------|------------0---|
I |----------------|----------------|----------------|----------------|
T |----------------|----------------|----------------|----------------|
A |----------------|----------------|----------------|----------------|
R |----------------|----------------|----------------|----------------|


G1|----------------|----------------|----------------|----------------|
U |----------------|----------------|----------------|----------------|
I |----------------|----------------|----------------|----------------|
T |-2--------------|-2--------------|-2--------------|-2--------------|
A |-2--------------|-1--------------|-2--------------|-1--------------|
R |-0--------------|-0--------------|-0--------------|-0--------------|
  |                                                                   |
G2|-2--------------|-5--------------|-2--------------|-5--------------|
U |------------0---|------------0---|------------0---|------------0---|
I |----------------|----------------|----------------|----------------|
T |----------------|----------------|----------------|----------------|
A |----------------|----------------|----------------|----------------|
R |----------------|----------------|----------------|----------------|


G1|----------------|----------------|----------------|----------------|
U |----------------|----------------|----------------|----------------|
I |----------------|----------------|----------------|----------------|
T |-2--------------|-2--------------|-2--------------|-2--------------|
A |-2--------------|-1--------------|-2--------------|-1--------------|
R |-0--------------|-0--------------|-0--------------|-0--------------|
  |                                                                   |
G2|-2--------------|-5--------------|-2--------------|-5--------------|
U |------------0---|------------0---|------------0---|----------------|
I |----------------|----------------|----------------|------------2---|
T |----------------|----------------|----------------|----------------|
A |----------------|----------------|----------------|----------------|
R |----------------|----------------|----------------|----------------|


G1|----------------|----------------|----------------|----------------|
U |----------------|----------------|----------------|----------------|
I |----------------|----------------|----------------|----------------|
T |-2--------------|-2--------------|-2--------------|-2--------------|
A |-2--------------|-1--------------|-2--------------|-1--------------|
R |-0--------------|-0--------------|-0--------------|-0--------------|
  |                                                                   |
G2|-0--------------|-3--------------|-0--------------|-3--------------|
U |----------------|----------------|----------------|----------------|
I |------------2---|------------2---|------------2---|------------2---|
T |----------------|----------------|----------------|----------------|
A |----------------|----------------|----------------|----------------|
R |----------------|----------------|----------------|----------------|


G1|----------------|----------------|----------------|----------------|
U |----------------|----------------|----------------|----------------|
I |----------------|----------------|----------------|----------------|
T |-2--------------|-2--------------|-2--------------|-2--------------|
A |-2--------------|-1--------------|-2--------------|-1--------------|
R |-0--------------|-0--------------|-0--------------|-0--------------|
  |                                                                   |
G2|-0--------------|-3--------------|-0--------------|-3--------------|
U |----------------|----------------|----------------|----------------|
I |------------2---|------------2---|------------2---|----------------|
T |----------------|----------------|----------------|----------------|
A |----------------|----------------|----------------|----------------|
R |----------------|----------------|----------------|----------------|


||----------------|----------------|----------------|----------------|
||----------------|----------------|----------------|----------------|
||-2----------2/5-|------------5/7-|------------7/5-|--------------2-|
||----------------|----------------|----------------|----------------|
||----------------|----------------|----------------|----------------|
||----------------|----------------|----------------|----------------|

 |----------------|----------------|----------------|----------------||
 |----------------|----------------|----------------|----------------||
 |------------2/5-|------------5/7-|----------------|----------------||
 |----------------|----------------|----------------|----------------||
 |----------------|----------------|----------------|----------------||
 |----------------|----------------|----------------|----------------|| x2

At the end of the above phrase, the acoustic bass plays this:
(Tabbed for guitar.)

 |----------------|----------------|----------------|----------------|-----
 |----------------|----------------|----------------|----------------|-----
 |----------------|----------------|----------------|----------------|-----
 |----------------|----------------|----------------|----------------|-----
 |----------------|----------------|----------------|----------------|-----
 |----------------|----------------|----------------|/5-----3-----1--|-0---


(Guitar 1)

||----------------|----------------|----------------|----------------||
||----------------|----------------|----------------|----------------||
||----------------|----------------|----------------|----------------||
||-2--------------|-2--------------|-2--------------|-2--------------||
||-2--------------|-1--------------|-2--------------|-1--------------||
||-0--------------|-0--------------|-0--------------|-0--------------|| x3


G1|----------------|----------------|----------------|----------------|
U |----------------|----------------|----------------|----------------|
I |----------------|----------------|----------------|----------------|
T |-2--------------|-2--------------|-2--------------|-2--------------|
A |-2--------------|-1--------------|-2--------------|-1--------------|
R |-0--------------|-0--------------|-0--------------|-0--------------|
  |                                                                   |
G2|----------------|----------------|----------------|----------------|
U |----------------|----------------|----------------|------------0---|
I |----------------|----------------|----------------|----------------|
T |----------------|----------------|----------------|----------------|
A |----------------|----------------|----------------|----------------|
R |----------------|----------------|----------------|----------------|


G1|----------------|----------------|----------------|----------------|
U |----------------|----------------|----------------|----------------|
I |----------------|----------------|----------------|----------------|
T |-2--------------|-2--------------|-2--------------|-2--------------|
A |-2--------------|-1--------------|-2--------------|-1--------------|
R |-0--------------|-0--------------|-0--------------|-0--------------|
  |                                                                   |
G2|-2--------------|-5--------------|-2--------------|-5--------------|
U |------------0---|------------0---|------------0---|------------0---|
I |----------------|----------------|----------------|----------------|
T |----------------|----------------|----------------|----------------|
A |----------------|----------------|----------------|----------------|
R |----------------|----------------|----------------|----------------|


G1|----------------|----------------|----------------|----------------|
U |----------------|----------------|----------------|----------------|
I |----------------|----------------|----------------|----------------|
T |-2--------------|-2--------------|-2--------------|-2--------------|
A |-2--------------|-1--------------|-2--------------|-1--------------|
R |-0--------------|-0--------------|-0--------------|-0--------------|
  |                                                                   |
G2|-2--------------|-5--------------|-2--------------|-5--------------|
U |------------0---|------------0---|------------0---|----------------|
I |----------------|----------------|----------------|------------2---|
T |----------------|----------------|----------------|----------------|
A |----------------|----------------|----------------|----------------|
R |----------------|----------------|----------------|----------------|


G1|----------------|----------------|----------------|----------------|
U |----------------|----------------|----------------|----------------|
I |----------------|----------------|----------------|----------------|
T |-2--------------|-2--------------|-2--------------|-2--------------|
A |-2--------------|-1--------------|-2--------------|-1--------------|
R |-0--------------|-0--------------|-0--------------|-0--------------|
  |                                                                   |
G2|-0--------------|-3--------------|-0--------------|-3--------------|
U |----------------|----------------|----------------|----------------|
I |------------2---|------------2---|------------2---|------------2---|
T |----------------|----------------|----------------|----------------|
A |----------------|----------------|----------------|----------------|
R |----------------|----------------|----------------|----------------|


G1|----------------|----------------|----------------|----------------|
U |----------------|----------------|----------------|----------------|
I |----------------|----------------|----------------|----------------|
T |-2--------------|-2--------------|-2--------------|-2--------------|
A |-2--------------|-1--------------|-2--------------|-1--------------|
R |-0--------------|-0--------------|-0--------------|-0--------------|
  |                                                                   |
G2|-0--------------|-3--------------|-0--------------|-3--------------|
U |----------------|----------------|----------------|----------------|
I |------------2---|------------2---|------------2---|----------------|
T |----------------|----------------|----------------|----------------|
A |----------------|----------------|----------------|----------------|
R |----------------|----------------|----------------|----------------|

End.


Last modified: 05/02/2007

VGJam Tabs Silent Hill 4: The Room - "Confinement"
Tabs database last modified Tuesday, 01-Nov-2016 19:14:53 UTC.
Copyright © 1999 - 2016 VideoGameJam.com. All rights reserved.