VGJam Tabs Silent Hill 4: The Room
Silent Hill 4: The Room
"Traversing the Portals of Reality" - Guitar tab
Platform(s):Multi-platformPlayStation 2Xbox
Composed by:Akira Yamaoka
Soundtrack:Silent Hill 4 -The Room- Original Soundtracks [LC-1292] (track D1-09)
Tabbed by:Deezer
Last modified:2007-05-06
Print it:Original file (.TXT)
#----------------------------------PLEASE NOTE---------------------------------#
#This file is the author's own work and represents their interpretation of the #
#song. You may only use this file for private study, scholarship, or research. #
#------------------------------------------------------------------------------#


Silent Hill 4 (Xbox/PS2)
"Traversing the Portals of Reality"

Originally composed by: Akira Yamaoka
------------------------------------------------------------------------------
Tabbed by: Deezer (deezer AT videogamejam DOT com)
For http://www.videogamejam.com
------------------------------------------------------------------------------

Standard tuning - (low to high) EADGBe

Note: Recording sounds sharp by about 1/4th


Intro:
======

-----------------------------------------------------------------
-----------------------------------------------------------------
-----------------------------------------------------------------
-----2-------2---------------------------------------------------
-1-------1-------------------------------------------------------
----------------------------------------------------------------- x4

Part A:
=======

G1|-----------------------------------------------------------------
U |-----------------------------------------------------------------
I |-----------------------------------------------------------------
T |-----2-------2---------------------------------------------------
A |-1-------1-------------------------------------------------------
R |-----------------------------------------------------------------
  |
G2|-----------------------------------------------------------------
U |---------5---------------5---------------5---------------5-------
I |-----4---------------4---------------4---------------4-----------
T |-5---------------5---------------5---------------5---------------
A |-----------------------------------------------------------------
R |-----------------------------------------------------------------


G1|-----------------------------------------------------------------
U |-----------------------------------------------------------------
I |-----------------------------------------------------------------
T |-----2-------2---------------------------------------------------
A |-1-------1-------------------------------------------------------
R |-----------------------------------------------------------------
  |
G2|-----------------------------------------------------------------
U |---------4---------------5---------------5---------------5-------
I |-----4---------------4---------------4---------------4-----------
T |-5---------------5---------------5---------------5---------------
A |-----------------------------------------------------------------
R |-----------------------------------------------------------------


G1|-----------------------------------------------------------------|
U |-----------------------------------------------------------------|
I |-----------------------------------------------------------------|
T |-----2-------2---------------------------------------------------|
A |-1-------1-------------------------------------------------------|
R |-----------------------------------------------------------------|
  |                                                                 |
G2|-----------------------------------------------------------------|
U |---------4---------------5---------------4---------------5-------|
I |-----4---------------4---------------4---------------4-----------|
T |-5---------------5---------------5---------------5---------------|
A |-----------------------------------------------------------------|
R |-----------------------------------------------------------------| x2


Part B:
=======

G1|-----------------------------------------------------------------
U |-----------------------------------------------------------------
I |-----------------------------------------------------------------
T |-----2-------2---------------------------------------------------
A |-1-------1-------------------------------------------------------
R |-----------------------------------------------------------------
  |
G2|-----------------------------------------------------------------
U |-----------------------------------------------------------------
I |----???----------------------------------------------------------
T |----???----------------------------------------------------------
A |-----------------------------------------------------------------
R |-----------------------------------------------------------------
        * I can't make out what guitar 2 plays here.

-----------------------------------------------------------------
-----------------------------------------------------------------
-----------------------------------------------------------------
-----2-------2---------------------------------------------------
-1-------1-------------------------------------------------------
----------------------------------------------------------------- x3

Play Part A again.

Part B2:
========

G1|-----------------------------------------------------------------
U |-----------------------------------------------------------------
I |-----------------------------------------------------------------
T |-----2-------2---------------------------------------------------
A |-1-------1-------------------------------------------------------
R |-----------------------------------------------------------------
  |
G2|-----------------------------------------------------------------
U |-----------------------------------------------------------------
I |----???----------------------------------------------------------
T |----???----------------------------------------------------------
A |-----------------------------------------------------------------
R |-----------------------------------------------------------------
        * I can't make out what guitar 2 plays here.

-----------------------------------------------------------------
-----------------------------------------------------------------
-----------------------------------------------------------------
-----2-------2---------------------------------------------------
-1-------1-------------------------------------------------------
-----------------------------------------------------------------


Part C:
=======

G1|-----------------------------------------------------------------
U |-----------------------------------------------------------------
I |-----------------------------------------------------------------
T |-----------------------------------------------------------------
A |-----2-------------------------------2---------------------------
R |-1-------1-----------------------1-------1-----------------------
  |                                                                 
G2|-----------------------------------------------------------------
U |-----------------------------------------------------------------
I |-----4-------------------------------4---------------------------
T |-3-------3-----------------------3-------3-----------------------
A |-----------------------------------------------------------------
R |-----------------------------------------------------------------

G1|-----------------------------------------------------------------
U |-----------------------------------------------------------------
I |-----------------------------------------------------------------
T |-----------------------------------------------------------------
A |-----2-------------------------------2---------------------------
R |-1-------1-----------------------1-------1-----------------------
  |                                                                 
G2|-----------------------------------------------------------------
U |-----------------------------------------------------------------
I |-----4-------------------------------4---------------------------
T |-3-------3-----------------------3-------3--------------------/9-
A |-----------------------------------------------------------------
R |-----------------------------------------------------------------


G1|-----------------------------------------------------------------
U |-----------------------------------------------------------------
I |-----------------------------------------------------------------
T |-----------------------------------------------------------------
A |-----2-------------------------------2---------------------------
R |-1-------1-----------------------1-------1-----------------------
  |                                                                 
G2|-----------------------------------------------------------------
U |-----------------------------------------------------------------
I |----10------------------------------10---------------------------
T |-9-------9-----------------------9-------9-----------------------
A |-----------------------------------------------------------------
R |-----------------------------------------------------------------

G1|-----------------------------------------------------------------
U |-----------------------------------------------------------------
I |-----------------------------------------------------------------
T |-----------------------------------------------------------------
A |-----2-------------------------------2---------------------------
R |-1-------1-----------------------1-------1-----------------------
  |                                                                 
G2|-----------------------------------------------------------------
U |-----------------------------------------------------------------
I |----10------------------------------10---------------------------
T |-9-------9-----------------------9-------9-----------------------
A |-----------------------------------------------------------------
R |-----------------------------------------------------------------


Outro:
======

-----------------------------------------------------------------
-----------------------------------------------------------------
-----------------------------------------------------------------
-----2-------2---------------------------------------------------
-1-------1-------------------------------------------------------
----------------------------------------------------------------- x7 (fade after 3)


Last modified: 05/06/07

VGJam Tabs Silent Hill 4: The Room - "Traversing the Portals of Reality"
Tabs database last modified Tuesday, 01-Nov-2016 19:14:53 UTC.
Copyright © 1999 - 2016 VideoGameJam.com. All rights reserved.