VGJam Tabs Silent Hill 4: The Room
Silent Hill 4: The Room
"Cradel of Forest" - Guitar tab
Platform(s):Multi-platformPlayStation 2Xbox
Composed by:Akira Yamaoka
Soundtrack:Silent Hill 4 -The Room- Original Soundtracks [LC-1292] (track D1-11)
Tabbed by:Deezer
Last modified:2005-03-26
Print it:Original file (.TXT)
#----------------------------------PLEASE NOTE---------------------------------#
#This file is the author's own work and represents their interpretation of the #
#song. You may only use this file for private study, scholarship, or research. #
#------------------------------------------------------------------------------#

Silent Hill 4: The Room (Xbox, PlayStation 2)
"Cradel of Forest"

Originally composed by: Akira Yamaoka
------------------------------------------------------------------------------
Tabbed by: Deezer (deezer AT videogamejam DOT com)
For http://www.videogamejam.com
------------------------------------------------------------------------------

Symbols used:
    x = muted string
 rit. = gradually slow down ("ritardando")


Chords used:

 Em   G    C    B7   D/A  Cadd9  Am   Cmaj7
-0----3----0---------2----0------------------
-0----0----1----0----3----3------1----0------
-0----0----0----2----2----0------2----0------
-2----0----2----1----0----2------2----2------
-2----2----3----2----0----3------0----3------
-0----3--------------------------------------

Standard tuning: (low to high) EADGBe

Vocals: Joe Romersa


Intro:
======

  Em              G               C               B7
|-----------------7-----------------------------------------------|
|-7-------------------------------8---------------7---------------|
|-----9---------------9---------------9---------------9-------8---|
|-----------------------------------------------------------------|
|-----------------------------------------------------------------|
|-----------------------------------------------------------------| x4

Verse:
======

 (Em)                            (G)
|-----------------0-------------------------------3---------------
|---------------------0-------------------------------0-----------
|-------------0-----------0-------------------0-----------0-------
|---------2-------------------2-----------0-------------------0---
|-----2-------------------------------2---------------------------
|-0-------------------------------3-------------------------------

 (D/A)                           (C)
 -----------------2-------------------------------0---------------|
 -------------3-------3-----------------------1-------1-----------|
 ---------2---------------2---------------0---------------0-------|
 -----0-----------------------0-------2-----------------------2---|
 -0-------------------------------3-------------------------------|
 -----------------------------------------------------------------| x2
 
Strummin' part [w/ approximate rhythm]

  Em      /     / / / /   /   / / G       /     / / / /   /   / /
|-0-------------------------------3-------------------------------
|-0-------------------------------0-------------------------------
|-0-------------------------------0-------------------------------
|-2-------------------------------0-------------------------------
|-2-------------------------------2-------------------------------
|-0-------------------------------3-------------------------------

  D/A /   /     / / / /   /   /   C       /         /     /   / /
 -2-------------------------------0---------------0---0-----------|
 -3-------------------------------1---------------3---1-----------|
 -2-------------------------------0---------------0---0-----------|
 -0-------------------------------2---------------2---2-----------|
 -0-------------------------------3---------------3---3-----------|
 -----------------------------------------------------------------| x3

 Em      /     / / / /   /   / / G       /     / / / /   /   / / 
-0-------------------------------3-------------------------------
-0-------------------------------0-------------------------------
-0-------------------------------0-------------------------------
-2-------------------------------0-------------------------------
-2-------------------------------2-------------------------------
-0-------------------------------3-------------------------------

 D/A /   /     / / / /   /   /   C
-2-------------------------------0-------------------------------
-3-------------------------------1-------------------------------
-2-------------------------------0-------------------------------
-0-------------------------------2-------------------------------
-0-------------------------------3-------------------------------
-----------------------------------------------------------------

Chorus:
=======

 Em G D/A Am Am G C B7 x2

After playing verse and chorus once, play the intro again.

Repeat verse and chorus, then play this:

    Em
|---------------------------0-----|
|---------------------------0-----|
|-----------0-0-0-----------0-----|
|-x-2-2-2-2-2-2-2-x-x-x-x-x-------|
|-x-2-2-2-2-2-2-2-x-x-x-x-x-------|
|-x-0-0-0-0-0-0-0-x-x-x-x-x-------| x3

   Em
---------------0-----------------
---------------0-----------------
-----------0-0-0-----------------
-x-2-2-2-2-2-2-------------------
-x-2-2-2-2-2-2-------------------
-x-0-0-0-0-0-0-------------------

Strings solo:
=============

  Em              G                C                  B7
|-14--15------14--------12-----------------15--------------------
|---------12-------------------12--15--13------12-----13--12-----
|----------------------------------------------------------------
|----------------------------------------------------------------
|----------------------------------------------------------------
|----------------------------------------------------------------

  Em              G                  C               B7
 -14--15------14--------12-----14-15-17--------15-14---------------|
 ---------12-----------------------------------------17-----16-----|
 ------------------------------------------------------------------|
 ------------------------------------------------------------------|
 ------------------------------------------------------------------|
 ------------------------------------------------------------------| x2

Post-solo:
==========

(Em)            (G)             (D/A)           (Am)
-----------------------------------------------------------------
-------------0---------------------------3-----------------------
-------------------------0-------------------2---------------2---
---------2-------------------0-------0-----------2-------2-------
-----2---------------2-----------0-------------------0-----------
-0---------------3-----------------------------------------------

(Am)            (G)             (Cmaj7)         (B7)
-----------------------------------------------------------------
-------------1-----------0-------------------0-------------------
---------2-------------------0-----------0---------------2-------
-----2-------------------------------2---------------1-------1---
-0-------------------2-----------3---------------2---------------
-----------------3-----------------------------------------------

Chorus:
=======

 Em G D/A Am Am G C B7 x4

Then play Intro again.

Outro:
======

(Em)            (G)             (D/A)           (Am)
-----------------------------------------------------------------
-------------0---------------------------3-----------------------
-------------------------0-------------------2---------------2---
---------2-------------------0-------0-----------2-------2-------
-----2---------------2-----------0-------------------0-----------
-0---------------3-----------------------------------------------

(Am)            (G)             (Cmaj7)         (B7)
-----------------------------------------------------------------
-------------1-----------0-------------------0-------------------
---------2-------------------0-----------0---------------2-------
-----2-------------------------------2---------------1-------1---
-0-------------------2-----------3---------------2---------------
-----------------3-----------------------------------------------


(Em)            (G)             (D/A)           (Am)
-----------------------------------------------------------------
-------------0---------------------------3-----------------------
-------------------------0-------------------2---------------2---
---------2-------------------0-------0-----------2-------2-------
-----2---------------2-----------0-------------------0-----------
-0---------------3-----------------------------------------------

(Am)            (G)             (Cmaj7)         (B7)
-----------------------------------------------------------------
-------------1-----------0-------------------0-------------------
---------2-------------------0-----------0---------------2-------
-----2-------------------------------2---------------1-------1---
-0-------------------2-----------3---------------2---------------
-----------------3-----------------------------------------------
                                      rit.

-----------------------------------------------------------------
-----------------------------------------------------------------
-----------------------------------------------------------------
-----------------------------------------------------------------
-----------------------------------------------------------------
--0--------------------------------------------------------------


Last modified: 03/26/2005

VGJam Tabs Silent Hill 4: The Room - "Cradel of Forest"
Tabs database last modified Tuesday, 01-Nov-2016 19:14:53 UTC.
Copyright © 1999 - 2016 VideoGameJam.com. All rights reserved.