VGJam Tabs Silent Hill 4: The Room
Silent Hill 4: The Room
"Your Rain" - Guitar tab
Platform(s):Multi-platformPlayStation 2Xbox
Composed by:Akira Yamaoka
Soundtrack:Silent Hill 4 -The Room- Original Soundtracks [LC-1292] (track D1-15)
Tabbed by:Deezer
Last modified:2011-05-01
Print it:Original file (.TXT)
#----------------------------------PLEASE NOTE---------------------------------#
#This file is the author's own work and represents their interpretation of the #
#song. You may only use this file for private study, scholarship, or research. #
#------------------------------------------------------------------------------#

Silent Hill 4: The Room (Xbox, PlayStation 2)
"Your Rain"

Originally composed by: Akira Yamaoka
------------------------------------------------------------------------------
Tabbed by: Deezer (deezer AT videogamejam DOT com)
For http://www.videogamejam.com
------------------------------------------------------------------------------

Symbols used:
 x = muted string
 / = slide up
 \ = slide down
 ~ = vibrato/sustain
 
Vocals: Mary Elizabeth McGlynn


Standard tuning: (low to high) EADGBe

Intro:
======

|-5-----------4-----------5-------------------4-----------5-------
|-----------------------------7-------------------------------7---
|-----6---------------6-------------------6-----------6-----------
|-----------------------------------------------------------------
|-----------------------------------------------------------------
|-----------------------------------------------------------------

 -------------7-----------0---9---------------------------0-------|
 -----5---------------5---------------5---------------5-----------|
 -6-----------------------------------------------------------6---|
 ---------------------------------------------7-------------------|
 -----------------------------------------------------------------|
 -----------------------------------------------------------------| x2
 
Then play Intro x4 behind vocals.

Verse:
======

-----------------------------------------------------------------
-------------0-----------------------0-------------------0-------
-----1---------------1-------1---------------1---------------1---
-2-----------------------2---------------2-----------2-----------
-----------------------------------------------------------------
-----------------------------------------------------------------
 
-------------2-------------------------------2-------------------
---------------------2-------------------2-----------------------
-----2-------------------2-----------2---------------------------
-0---------------------------0-------------------------------4---
-----------------------------------------------------------------
-----------------------------------------------------------------

-----------------------------------------------------------------
-------------0-----------------------0---------------0-----------
-----1---------------1-------1-------------------1-----------1---
-2-----------------------2-------------------2-------------------
-----------------------------------------------------------------
-----------------------------------------------------------------
 
-------------2-------------------------------2-------------------
---------------------2-------------------2-----------2-----------
-----2-------------------2-----------2-------------------2-------
-0---------------------------0-----------------------------------
-----------------------------------------------------------------
-----------------------------------------------------------------


Chorus:
=======

  w/phaser
|-----------------------------------------------------------------|
|-7-------7---x-x-9-------9---x-x-------------x-x-9---x-x-10--x-x-|
|-x-------x---x-x-x-------x---x-x-9-------9---x-x-x---x-x-x---x-x-|
|-4-------4---x-x-6-------6---x-x-x-------x---x-x-6---x-x-7---x-x-|
|---------------------------------7-------7-----------------------|
|-----------------------------------------------------------------| x2

At the end of the repeat, Guitar 2 comes in:

 -----------------------------------------------------------------
 -----------------------------------------------------------------
 -----------------------------------------------------------------
 ---------------------------------------------------------x-x-x-x-
 ---------------------------------------------------------x-x-x-x-
 ---------------------------------------------------------x-x-x-x-

  F#5             E5              B5              C#5
|-----------------------------------------------------------------|
|-----------------------------------------------------------------|
|---------------------------------4---4---4---4-4-6---6---6---6-6-|
|-4---4---4---4-4-2---2---2---2-2-4---4---4---4-4-6---6---6---6-6-|
|-4---4---4---4-4-2---2---2---2-2-2---2---2---2-2-4---4---4---4-4-|
|-2---2---2---2-2-0---0---0---0-0---------------------------------| x4


Pre-solo:
=========
      F#5                   E5        F#5                   E5
|-----------------------------------------------------------------|
|-----------------------------------------------------------------|
|-----------------------------------------------------------------|
|-----4-----4-----4---4-4-4-2---------4-----4-----4---4-4-4-2-----|
|-x-x-4---x-4---x-4---4-4-4-2-----x-x-4---x-4---x-4---4-4-4-2-----|
|-x-x-2---x-2---x-2---2-2-2-0-----x-x-2---x-2---x-2---2-2-2-0-----| x2


Solo:
=====

Rhythm guitar plays all eighth notes. (A5 = x022xx)

Guitar 2:
(w/ wah. I do not have a wah pedal, so please do not hesitate to send me
 any suggestions or corrections.)

 F#5                             A5
-----------------------------------------------------------------
-----------------------------------------------------------------
-11--------------11------11--13-----/14------13--14--13--14--16--
-------------11------11------------------------------------------
-----------------------------------------------------------------
-----------------------------------------------------------------

 B5                              C#5
-----------------------------------------------------------------
-----------------------------------------------------------------
-\--11-------------------11-/18--------\-11--------------13------
---------------------11-----/18--------\-11----------------------
-----------------------------------------------------------------
-----------------------------------------------------------------

 F#5                             A5
-----------------------------------------------------------------
-----------------------------------------------------------------
-11--------------11------11--13-----/14------13--14--13--14--16--
-------------11------11------------------------------------------
-----------------------------------------------------------------
-----------------------------------------------------------------

 B5                              C#5
-----------------------------------------------------------------
-----------------------------------------------------------------
-\--11-------------------11-/18----------------------------------
---------------------11-----/18--------\-11-11-11-11-11~---------
-----------------------------------------------------------------
-----------------------------------------------------------------

Post-solo:
==========

---------------------------------------------0-------------------
---------------------------------------------0-------------------
-----------------------------------------------------------------
-2---------------------------------------------------------------
-2---------------------------------------------------------------
-0---------------------------------------------------------------

-------------2-------------------------------2-------------------
---------------------2-----------------------2-------------------
-----2-------------------2---------------------------------------
-0---------------------------0-----------------------------------
-----------------------------------------------------------------
-----------------------------------------------------------------

-----------------------------0-----------------------------------
-----------------------------0-----------------------------------
-----------------------------------------------------------------
-2---------------------------------------------------------------
-2---------------------------------------------------------------
-0---------------------------------------------------------------

-------------2---------------2-----------------------------------
---------------------2-------2-----------------------------------
-----2-------------------2---------------------------------------
-0---------------------------------------------------------------
-----------------------------------------------------------------
-----------------------------------------------------------------

Play the Chorus again, then:

 F#5
-----------------------------------------------------------------
-----------------------------------------------------------------
-----------------------------------------------------------------
-4---------------------------------------------------------------
-4---------------------------------------------------------------
-2---------------------------------------------------------------

Bass outro:
===========

|-----------------------------------------------------------------|
|-----------------------------------------------------------------|
|-------------------------0h2-2h4-------------------------0h2p0---|
|-0-2-2-0-2-2-0-2-2-0-2-2---------0-2-2-0-2-2-0-2-2-0-2-2-------4-| x3

 -----------------------------------------------------------------
 -----------------------------------------------------------------
 -------------------------0h2-2h4---------------------------------
 -0-2-2-0-2-2-0-2-2-0-2-2---------0-2-2-0-2-2-0-2-2---------------


Revision history:
 04/14/2005 - First draft.
 05/01/2011 - Minor edits.

VGJam Tabs Silent Hill 4: The Room - "Your Rain"
Tabs database last modified Tuesday, 01-Nov-2016 19:14:53 UTC.
Copyright © 1999 - 2016 VideoGameJam.com. All rights reserved.