VGJam Tabs The Legend of Zelda: Twilight Princess
The Legend of Zelda: Twilight Princess
"Ilia's Theme" - Guitar tab
Platform(s):Multi-platformWiiGameCube
Composed by:Toru Minegishi, Asuka Ohta, Koji Kondo
Tabbed by:Deezer
Last modified:2007-06-19
Print it:Original file (.TXT)
Hear it:MIDI file
#----------------------------------PLEASE NOTE---------------------------------#
#This file is the author's own work and represents their interpretation of the #
#song. You may only use this file for private study, scholarship, or research. #
#------------------------------------------------------------------------------#

The Legend of Zelda: Twilight Princess (Wii, GameCube)
"Ilia's Theme"

Originally composed by: Toru Minegishi, Asuka Ohta, Koji Kondo
------------------------------------------------------------------------------
Tabbed by: Deezer (deezer AT videogamejam DOT com)
For http://www.videogamejam.com
------------------------------------------------------------------------------


Standard tuning: (low to high) EADGBe

Tabbed one octave lower. If you happen to have 27 frets, add 12 to every number
to play it all in the original octave.


------------------8--7--|------------------8--7--|
------------------------|--8---------------------|
------------------------|------------------------|
------------------------|------------------------|
------------------------|------------------------|
------------------------|------------------------|

------------------8--7--|--------------------------|
--8---------------------|--8-------------------10--|
------------------------|---------------9--10------|
------------------------|--------------------------|
------------------------|--------------------------|
------------------------|--------------------------|

------------------8--7--|------------------8--7--|
--8---------------------|--8---------------------|
------------------------|------------------------|
------------------------|------------------------|
------------------------|------------------------|
------------------------|------------------------|

------------------8--7--|-------------------------|
--8---------------------|--8----------------------|
------------------------|---------------9--10--9--|
------------------------|-------------------------|
------------------------|-------------------------|
------------------------|-------------------------|

-------------------------|--------------------------|
-------------------------|--8-------------------10--|
-------------------------|---------------10--9------|
--10--------------9--10--|--------------------------|
-------------------------|--------------------------|
-------------------------|--------------------------|

-------------------------|---------------------------|
--8------------------10--|--8------------------------|
--------------10--9------|----------------10--9------|
-------------------------|------------------------7--|
-------------------------|---------------------------|
-------------------------|---------------------------|

----------------------7--|--8------------7------10--|
------------------10-----|------------------10------|
--9----------------------|--------------------------|
-------------------------|--------------------------|
-------------------------|--------------------------|
-------------------------|--------------------------|

--8--------------10--12--|--13----------15--------|--10----------------|
-------------------------|------------------------|--------------------|
-------------------------|------------------------|--------------------|
-------------------------|------------------------|--------------------|
-------------------------|------------------------|--------------------|
-------------------------|------------------------|--------------------|

                            ^Slide into these last three notes a little.

Repeat from beginning.


Last modified: 06/19/2007

VGJam Tabs The Legend of Zelda: Twilight Princess - "Ilia's Theme"
Tabs database last modified Tuesday, 01-Nov-2016 19:14:53 UTC.
Copyright © 1999 - 2016 VideoGameJam.com. All rights reserved.