VGJam Tabs The Legend of Zelda: Twilight Princess
The Legend of Zelda: Twilight Princess
"Snowpeak" - Guitar tab
Platform(s):Multi-platformWiiGameCube
Composed by:Toru Minegishi, Asuka Ohta, Koji Kondo
Tabbed by:Deezer
Last modified:2007-06-19
Print it:Original file (.TXT)
#----------------------------------PLEASE NOTE---------------------------------#
#This file is the author's own work and represents their interpretation of the #
#song. You may only use this file for private study, scholarship, or research. #
#------------------------------------------------------------------------------#

The Legend of Zelda: Twilight Princess (Wii, GameCube)
"Snowbound"

Originally composed by: Toru Minegishi, Asuka Ohta, Koji Kondo
------------------------------------------------------------------------------
Tabbed by: Deezer (deezer AT videogamejam DOT com)
For http://www.videogamejam.com
------------------------------------------------------------------------------


Standard tuning: (low to high) EADGBe

A "..." indicates a long break between notes.


-------15----14------     -------13----12-------------------
-12------------------     -10----------------13----12-------
---------------------     ----------------------------------
---------------------     ----------------------------------
---------------------     ----------------------------------
--------------------- ... ---------------------------------- ...

-------15----14------     -------15----14-------------------
-12------------------     -12----------------15-------------
---------------------     ----------------------------------
---------------------     ----------------------------------
---------------------     ----------------------------------
--------------------- ... ---------------------------------- ...

-------15----14------     -------16----15----18-------------
-12------------------     -13-------------------------------
---------------------     ----------------------------------
---------------------     ----------------------------------
---------------------     ----------------------------------
--------------------- ... ---------------------------------- ...

Voices:
=======

---------19---17-----------     ----------15---14-----------------
-17----------------15------     -13----------------12-------------
---------------------------     ----------------------------------
---------------------------     ----------------------------------
---------------------------     ----------------------------------
--------------------------- ... ---------------------------------- ...

End of voices.


-------15----14------     -------15----14-------------------
-12------------------     -12----------------15-------------
---------------------     ----------------------------------
---------------------     ----------------------------------
---------------------     ----------------------------------
--------------------- ... ---------------------------------- ...

-------15----14------     -------13----12-------------------
-12------------------     -10----------------13----12-------
---------------------     ----------------------------------
---------------------     ----------------------------------
---------------------     ----------------------------------
--------------------- ... ---------------------------------- ...

Repeat from beginning.


Last modified: 06/19/2007

VGJam Tabs The Legend of Zelda: Twilight Princess - "Snowpeak"
Tabs database last modified Monday, 21-Jul-2014 21:11:05 CDT.
Copyright © 1999 - 2014 VideoGameJam.com. All rights reserved.