VGJam Tabs The Legend of Zelda: Twilight Princess
The Legend of Zelda: Twilight Princess
"Zora Queen" - Guitar tab
Platform(s):Multi-platformWiiGameCube
Composed by:Toru Minegishi, Asuka Ohta, Koji Kondo
Tabbed by:Deezer
Last modified:2008-10-21
Print it:Original file (.TXT)
Hear it:MIDI file
#----------------------------------PLEASE NOTE---------------------------------#
#This file is the author's own work and represents their interpretation of the #
#song. You may only use this file for private study, scholarship, or research. #
#------------------------------------------------------------------------------#

The Legend of Zelda: Twilight Princess (Wii, GameCube)
"Zora Queen"

Originally composed by: Toru Minegishi, Asuka Ohta, Koji Kondo
------------------------------------------------------------------------------
Tabbed by: Deezer (deezer AT videogamejam DOT com)
For http://www.videogamejam.com
------------------------------------------------------------------------------


Standard tuning: (low to high) EADGBe


   (Dm)              (G)
G1|-------------5-----5-----7----------|
U |-------6----------------------------|
I |-7----------------------------------|
T |------------------------------------|
A |------------------------------------|
R |------------------------------------|
  |                                    |
G2|-1----------------------------------|
U |----3--------------3----------------|
I |-------2--------------4-------------|
T |-------------------------5----------|
A |------------------------------------|
R |------------------------------------|  x2


   (F)               (Am)
G1|-------7-----8-----7----------------|
U |-6-----------------------5----------|
I |------------------------------------|
T |------------------------------------|
A |------------------------------------|
R |------------------------------------|
  |                                    |
G2|------------------------------------|
U |-1-----------------1----------------|
I |----2-----------------2-------------|
T |-------3-----------------2----------|
A |------------------------------------|
R |------------------------------------|  x2


   (Dm)              (G)
G1|-------------5-----5-----7----------|
U |-------6----------------------------|
I |-7----------------------------------|
T |------------------------------------|
A |------------------------------------|
R |------------------------------------|
  |                                    |
G2|-1----------------------------------|
U |----3--------------3----------------|
I |-------2--------------4-------------|
T |-------------------------5----------|
A |------------------------------------|
R |------------------------------------|  x2


   (Bb)              (C)               (D)
G1|-5----------------------------------------------------------------------
U |-------------6-----8--6--5-----8-----7----------------------------------
I |-------7----------------------------------------------------------------
T |------------------------------------------------------------------------
A |------------------------------------------------------------------------
R |------------------------------------------------------------------------
  |
G2|-------1-----------0----------------------------------------------------
U |----3-----------------1--------------------3-----------------3----------
I |-3-----------------------0-----------2----------------------------------
T |----------------------------------------0-----------------0-------------
A |------------------------------------------------------------------------
R |------------------------------------------------------------------------

Repeat from beginning.


Revision history:
 06/19/2007 - First draft.
 10/21/2008 - Changed a chord label.

VGJam Tabs The Legend of Zelda: Twilight Princess - "Zora Queen"
Tabs database last modified Tuesday, 01-Nov-2016 19:14:53 UTC.
Copyright © 1999 - 2016 VideoGameJam.com. All rights reserved.