VGJam Tabs The Legend of Zelda: Twilight Princess
The Legend of Zelda: Twilight Princess
"Midna's Desperate Hour" - Guitar tab
Platform(s):Multi-platformWiiGameCube
Composed by:Toru Minegishi, Asuka Ohta, Koji Kondo
Tabbed by:Not So Great Juja
Last modified:2007-07-16
Date added:2008-02-24
Print it:Original file (.TXT)
Game: The Legend of Zelda - Twilight Princess
Song: Midna's Desperate Hour
Composed by: Koji Kondo
Tabbed by: Not So Great Juja (Paul Mella)

Key:
~ = vibrato
p = pull-off
h = hammer-on
/ = slide
pm = palm-mute
tr = tremolo picking

Any questions or comments -
please, E-mail me at: TheDeviLisDavidHerbert@gmail.com

e|--------------------------------------------------------------------------|
B|--------------------------------------------------------------------------|
G|--------------------------------------------------------12----------------|
D|-------------12-14-------------12-14--------------12-14----14-10----------|
A|----------12----------------12-----------------12----------------12-------|
E|-10-12-13----------10-12-13-----------10-12-13----------------------13-12-|


e|--------------------------------------------------------------------------|
B|--------------18---17-----------------------------------------------------|
G|-14----------------------------17-----16----------14----16----------------|
D|-----------------------------------------------------17-------------------|
A|--------------------------------------------------------------------------|
E|--------------------------------------------------------------------------|
 |                                                                          |
e|--------------------------------------------------------------------------|
B|--------------------------------------------------------------------------|
G|--------------------------------------------------------------------------|
D|-------------12-14-------------12-14--------------12-14-------------12-14-|
A|----------12----------------12-----------------12----------------12-------|
E|-10-12-13----------10-12-13-----------10-12-13----------10-12-13----------|


e|-----------------------17----------17-------------------------------------|
B|--------------------15----17----15----17----------------------------------|
G|--------------------------------------------------------------------------|
D|--------------------------------------------------------------------------|
A|--------------------------------------------------------------------------|
E|--------------------------------------------------------------------------|
 |                                                                          |
e|--------------------------------------------------------------------------|
B|--------------------------------------------------------------------------|
G|--------------------------------------------------------------------------|
D|-------------12-14-------------12-14--------------12-14-------------12-14-|
A|----------12----------------12-----------------12----------------12-------|
E|-10-12-13----------10-12-13-----------10-12-13----------10-12-13----------|


e|--------------------------------------------------------15----------------|
B|--------------18---17-----------------15----------17-18-------------------|
G|-14----------------------------17-----------------------------------------|
D|--------------------------------------------------------------------------|
A|--------------------------------------------------------------------------|
E|--------------------------------------------------------------------------|
 |                                                                          |
e|--------------------------------------------------------------------------|
B|--------------------------------------------------------------------------|
G|--------------------------------------------------------------------------|
D|-------------12-14-------------12-14--------------12-14-------------12-14-|
A|----------12----------------12-----------------12----------------12-------|
E|-10-12-13----------10-12-13-----------10-12-13----------10-12-13----------|


e|-----------------------------20-------------------------------------------|
B|--------------------------18---20-18-17-----------------------------------|
G|--------------------------------------------------------------------------|
D|--------------------------------------------------------------------------|
A|--------------------------------------------------------------------------|
E|--------------------------------------------------------------------------|
 |                                                                          |
e|--------------------------------------------------------------------------|
B|--------------------------------------------------------------------------|
G|--------------------------------------------------------------------------|
D|-------------12-14-------------12-14--------------12-14-------------12-14-|
A|----------12----------------12-----------------12----------------12-------|
E|-10-12-13----------10-12-13-----------10-12-13----------10-12-13----------|


e|-17----------------------------------|
B|-------------------------------------|
G|-------------------------------------|
D|-------------------------------------|
A|-------------------------------------|
E|-------------------------------------|
 |                                     |
e|-------------------------------------|
B|-------------------------------------|
G|-------------------------------------|
D|-------------12-14-------------12-14-|
A|----------12----------------12-------|
E|-10-12-13----------10-12-13----------|


e|----------18-------17-----------------15--------------------------------15|
B|-16-------------------------18---------------------------------------18---|
G|--------------------------------------------------------------------------|
D|--------------------------------------------------------------------------|
A|--------------------------------------------------------------------------|
E|--------------------------------------------------------------------------|
 |                                                                          |
e|--------------------------------------------------------------------------|
B|--------------------------------------------------------------------------|
G|----------------10----------------10-----------------5------------------5-|
D|-------------12----------------12--------------5--6---------------5--6----|
A|-------10-13-------------10-13-----------3--6---------------3--6----------|
E|-11-13-------------11-13--------------4------------------4----------------|


e|--------------------------------------|
B|-17-----------------------------------|
G|--------------------------------------|
D|--------------------------------------|
A|--------------------------------------|
E|--------------------------------------|
 |                                      |
e|--------------------------------------|
B|--------------------------------------|
G|-----------------6------------------6-|
D|-----------5--7---------------5--7----|
A|-----4--7---------------4--7----------|
E|--5------------------5----------------|


e|--------------------------------------------------------------------------|
B|--------------18---17-----------------------------------------------------|
G|-14----------------------------17-----16----------14----16----------------|
D|-----------------------------------------------------17-------------------|
A|--------------------------------------------------------------------------|
E|--------------------------------------------------------------------------|
 |                                                                          |
e|--------------------------------------------------------------------------|
B|--------------------------------------------------------------------------|
G|--------------------------------------------------------------------------|
D|-------------12-14-------------12-14--------------12-14-------------12-14-|
A|----------12----------------12-----------------12----------------12-------|
E|-10-12-13----------10-12-13-----------10-12-13----------10-12-13----------|


e|-----------------------17----------17-------------------------------------|
B|--------------------15----17----15----17----------------------------------|
G|--------------------------------------------------------------------------|
D|--------------------------------------------------------------------------|
A|--------------------------------------------------------------------------|
E|--------------------------------------------------------------------------|
 |                                                                          |
e|--------------------------------------------------------------------------|
B|--------------------------------------------------------------------------|
G|--------------------------------------------------------------------------|
D|-------------12-14-------------12-14--------------12-14-------------12-14-|
A|----------12----------------12-----------------12----------------12-------|
E|-10-12-13----------10-12-13-----------10-12-13----------10-12-13----------|


e|--------------------------------------------------------15----------------|
B|--------------18---17-----------------15----------17-18-------------------|
G|-14----------------------------17-----------------------------------------|
D|--------------------------------------------------------------------------|
A|--------------------------------------------------------------------------|
E|--------------------------------------------------------------------------|
 |                                                                          |
e|--------------------------------------------------------------------------|
B|--------------------------------------------------------------------------|
G|--------------------------------------------------------------------------|
D|-------------12-14-------------12-14--------------12-14-------------12-14-|
A|----------12----------------12-----------------12----------------12-------|
E|-10-12-13----------10-12-13-----------10-12-13----------10-12-13----------|


e|-----------------------------20-------------------------------------------|
B|--------------------------18---20-18-17-----------------------------------|
G|--------------------------------------------------------------------14-16-|
D|--------------------------------------------------------------------------|
A|--------------------------------------------------------------------------|
E|--------------------------------------------------------------------------|
 |                                                                          |
e|--------------------------------------------------------------------------|
B|--------------------------------------------------------------------------|
G|--------------------------------------------------------------------------|
D|-------------12-14-------------12-14--------------12-14-------------12-14-|
A|----------12----------------12-----------------12----------------12-------|
E|-10-12-13----------10-12-13-----------10-12-13----------10-12-13----------|


e|--------------------------------------------------------------------------|
B|---------------------------------17---15----------------------------------|
G|-17-----------------------------------------------------------------------|
D|-----------------------------------------------17-------------------------|
A|--------------------------------------------------------------------------|
E|--------------------------------------------------------------------------|
 |                                                                          |
e|--------------------------------------------------------------------------|
B|-----------------5-----------------5-----------------3-----------------3--|
G|-----------4--5--------------4--5-----------------4-----------------4-----|
D|--------------------------------------------2--5--------------2--5--------|
A|-----7--8--------------7--8--------------5-----------------5--------------|
E|--5-----------------5-----------------3-----------------3-----------------|


e|--------------------------------------------------------------------------|
B|--------------------------------------------------------------------------|
G|---------------------------------17----16---------------------------------|
D|--15-------------------------------------------14-------------------------|
A|--------------------------------------------------------------------------|
E|--------------------------------------------------------------------------|
 |                                                                          |
e|--------------------------------------------------------------------------|
B|-----------------1------------------1-------------------------------------|
G|--------------2------------------2-------------------4-----------------4--|
D|--------0--3---------------0--3----------------2--5--------------2--5-----|
A|-----3------------------3-----------------2--3--------------2--3----------|
E|--1------------------1-----------------0-----------------0----------------|


e|--------------------------------------------------------------------------|
B|-----------15----------15-------------------------------------------------|
G|--------12---14-----12----14----------------------------------------------|
D|------------------------------------------------12------------------------|
A|---------------------------------------------10---12----------------------|
E|--------------------------------------------------------------------------|
 |                                                                          |
e|--------------------------------------------------------------------------|
B|-----------------1------------------1-----------------1-----------------1-|
G|--------------2------------------2-----------------2-----------------2----|
D|--------0--3---------------0--3--------------1--4--------------1--4-------|
A|-----3------------------3-----------------3-----------------3-------------|
E|--1------------------1-----------------2-----------------2----------------|


e|-----------------------------------------------15-------------------------|
B|-----------17----------17-------------------------15----------------------|
G|--------14---16-----14----16-----------------17------17-16----------------|
D|--------------------------------------------------------------------------|
A|--------------------------------------------------------------------------|
E|--------------------------------------------------------------------------|
 |                                                                          |
e|--------------------------------------------------------------------------|
B|-----------------3------------------3-----------------3-----------------3-|
G|--------------4------------------4-----------------4-----------------4----|
D|--------2--5---------------2--5--------------3--6--------------3--6-------|
A|-----5------------------5-----------------5-----------------5-------------|
E|--3------------------3-----------------4-----------------4----------------|


e|--------------------------------------------------------------------------|
B|--------------------------------------------------------3-----------------|
G|-----------------4-----------------4-----------------4-----4--------------|
D|--------------5-----------------5-----------------5-----------5-----------|
A|-----------7-----------------7-----------------7-----------------7--------|
E|--5--7--8-----------5--7--8-----------5--7--8-----------------------8--7--|

Then it all repeats from the beginning.

VGJam Tabs The Legend of Zelda: Twilight Princess - "Midna's Desperate Hour"
Tabs database last modified Tuesday, 01-Nov-2016 19:14:53 UTC.
Copyright © 1999 - 2016 VideoGameJam.com. All rights reserved.