VGJam Tabs GripShift
GripShift
"Night Riding" - Guitar tab
Platform(s):Multi-platformPlayStation Portable
Composed by:Module
Soundtrack:GripShift EP (track 01)
Tabbed by:Deezer
Last modified:2009-12-21
Date added:2010-01-04
Print it:Original file (.TXT)
#----------------------------------PLEASE NOTE---------------------------------#
#This file is the author's own work and represents their interpretation of the #
#song. You may only use this file for private study, scholarship, or research. #
#------------------------------------------------------------------------------#


GripShift (Multi-platform)
"Night Riding"

Originally composed by: Module
------------------------------------------------------------------------------
Tabbed by: Deezer (deezer AT videogamejam DOT com)
For http://www.videogamejam.com
------------------------------------------------------------------------------

Note: You can hear and buy this track at
       http://sidhe.bandcamp.com/album/gripshift-ep

Standard tuning - (low to high) EADGBe

Symbols used:
 h = hammer-on
 p = pull-off
 x = muffled string
 / = slide up
 \ = slide down
 

|----------------------------------|--------------------------------|
|----------------------------------|--------------------------------|
|----------------------------------|--------------------------------|
|--x-10--x-10--x-x-x-10--x-10--x-x-|--x-10--x-10--x-x-x-x-10--10----|
|----------------------------------|--------------------------------|
|----------------------------------|--------------------------------|


--------------------------|--------------------------|
--------------------------|--------------------------|
----------------7--7h8p7--|----------------7--7h8p7--|
--10------7--8------------|--10------7--8------------|
--------------------------|--------------------------|
--------------------------|--------------------------|


--------------------------|--------------------------|
--------------------------|--------------------------|
----------------7--7h8p7--|----------------7--7h8p7--|
--10------7--8------------|--10------7--8------------|
--------------------------|--------------------------|
--------------------------|--------------------------|


------------------------|-----------------------------|
------------------------|-----------------------------|
----------7--8p7--------|-----------------------------|
--10--------------10--\-|--8-/-10-\-8----5-/-7-\-5----|
------------------------|-----------------------------|
------------------------|-----------------------------|


--------------------------|--------------------------------------|
--------------------------|--------------------------------------|
----------------7--7h8p7--|--------------------------------------|
--10------7--8------------|--10----10----10-10-10-10-10-10-10-10-|
--------------------------|--------------------------------------|
--------------------------|--------------------------------------|


--------------------------|--------------------------|
--------------------------|--------------------------|
----------------7--7h8p7--|----------------7--7h8p7--|
--10------7--8------------|--10------7--8------------|
--------------------------|--------------------------|
--------------------------|--------------------------|


--------------------------|--------------------------|
--------------------------|--------------------------|
----------------7--7h8p7--|----------------7--7h8p7--|
--10------7--8------------|--10------7--8------------|
--------------------------|--------------------------|
--------------------------|--------------------------|


------------------------|-----------------------------|
------------------------|-----------------------------|
----------7--8p7--------|-----------------------------|
--10--------------10--\-|--8-/-10-\-8----5-/-7-\-5----|
------------------------|-----------------------------|
------------------------|-----------------------------|


--------------------------|--------------------------|
--------------------------|--------------------------|
----------------7--7h8p7--|--------------------------|
--10------7--8------------|--10----10----10----10----|
--------------------------|--------------------------|
--------------------------|--------------------------|


For this section you could have a second guitar play the lower notes.

---------------------------------|---------------------------------|
--11--11--11------11----11---13--|--11--11--11------11----11---13--|
--------------12-----------------|--------------12-----------------|
---8---8---8-------8-----8---10--|---8---8---8-------8-----8---10--|
--------------10-----------------|--------------10-----------------|
---------------------------------|---------------------------------|


---------------------------------|---------------------------------|
--11--11--11------11----11---13--|--11--11--11------11----11---13--|
--------------12-----------------|--------------12-----------------|
---8---8---8-------8-----8---10--|---8---8---8-------8-----8---10--|
--------------10-----------------|--------------10-----------------|
---------------------------------|---------------------------------|


--10--10------------------------|------------------------------------|
----------11--11----------------|-------------11--11-----------------|
---7---7----------10----10---8--|--10/12--12----------10----10---10--|
-----------8---8----------------|--------------8---8-----------------|
-------------------8-----8---6--|---8/10--10-----------8-----8----8--|
--------------------------------|------------------------------------|


---------------------------------|--------------------------------------|
--11--11--11------11----11---13--|--11--11--11--------------------------|
--------------12-----------------|--------------12--12--12--12-12-12-12-|
---8---8---8-------8-----8---10--|---8---8---8--------------------------|
--------------10-----------------|--------------10--10--10--10-10-10-10-|
---------------------------------|--------------------------------------|


---------------------------------|---------------------------------|
--11--11--11------11----11---13--|--11--11--11------11----11---13--|
--------------12-----------------|--------------12-----------------|
---8---8---8-------8-----8---10--|---8---8---8-------8-----8---10--|
--------------10-----------------|--------------10-----------------|
---------------------------------|---------------------------------|


---------------------------------|---------------------------------|
--11--11--11------11----11---13--|--11--11--11------11----11---13--|
--------------12-----------------|--------------12-----------------|
---8---8---8-------8-----8---10--|---8---8---8-------8-----8---10--|
--------------10-----------------|--------------10-----------------|
---------------------------------|---------------------------------|


--10--10------------------------|------------------------------------|
----------11--11----------------|-------------11--11-----------------|
---7---7----------10----10---8--|--10/12--12----------10----10---10--|
-----------8---8----------------|--------------8---8-----------------|
-------------------8-----8---6--|---8/10--10-----------8-----8----8--|
--------------------------------|------------------------------------|


---------------------------------|---------------------------------|
--11--11--11------11----11---13--|--11--11--11------11----11---13--|
--------------12-----------------|--------------12-----------------|
---8---8---8-------8-----8---10--|---8---8---8-------8-----8---10--|
--------------10-----------------|--------------10-----------------|
---------------------------------|---------------------------------|


||--------------------------|--------------------------|
||--------------------------|--------------------------|
||--------------------------|--------------------------|
||--1-----------------------|--1-----------------3--3--|
||-----3--3--3--1--3--3--3--|-----3--3--3--3--3--------|
||--------------------------|--------------------------|


  --------------------------|--------------------------||
  --------------------------|--------------------------||
  --------------------------|--------------------------||
  --1-----------------------|--1-----------------------||
  -----3--3--3--1--3--3--3--|-----3--3--3--3--3--3--3--||
  --------------------------|--------------------------|| 4x


--------------------------|--------------------------|
--------------------------|--------------------------|
----------------7--7h8p7--|----------------7--7h8p7--|
--10------7--8------------|--10------7--8------------|
--------------------------|--------------------------|
--------------------------|--------------------------|


--------------------------|--------------------------|
--------------------------|--------------------------|
----------------7--7h8p7--|----------------7--7h8p7--|
--10------7--8------------|--10------7--8------------|
--------------------------|--------------------------|
--------------------------|--------------------------|


------------------------|-----------------------------|
------------------------|-----------------------------|
----------7--8p7--------|-----------------------------|
--10--------------10--\-|--8-/-10-\-8----5-/-7-\-5----|
------------------------|-----------------------------|
------------------------|-----------------------------|


--------------------------|-------------------------|
--------------------------|-------------------------|
----------------7--7h8p7--|----------------7--------|
--10------7--8------------|--10------7--8-----10----|
--------------------------|-------------------------|
--------------------------|-------------------------|

[Rest for four measures.]

--------------------------------|-------------------------------|
--------------------------------|-------------------------------|
-------------------------7------|------------------------7------|
--x-10--x-10--x-x-x-x-8-----x-x-|-x-10--x-10--x-x-x-x-8-----x-x-|
--------------------------------|-------------------------------|
--------------------------------|-------------------------------|


--------------------------------|---------------------------------|
--------------------------------|---------------------------------|
-------------------------7------|---------------------------------|
--x-10--x-10--x-x-x-x-8-----x-x-|-x-10--x-10--x-x-x-10--x-10--x-x-|
--------------------------------|---------------------------------|
--------------------------------|---------------------------------|


-------------------------|-------------------------|-------------------------|
-------------------------|-------------------------|-------------------------|
-------------------------|-------------------------|-------------------------|
-----3--3--3--3---0---1--|-----3--3--3--3---0---1--|-----3--3--3--3---0---1--|
-------------------------|-------------------------|-------------------------|
-------------------------|-------------------------|-------------------------|


-------------------------|-------------------------|-------------------------|
-------------------------|-------------------------|-------------------------|
-------------------------|-------------------------|-------------------------|
-----3--3--3--3---0---1--|-----3--3--3--3---0---1--|-----3--3--3--3---0---1--|
-------------------------|-------------------------|-------------------------|
-------------------------|-------------------------|-------------------------|


-------------------------|-------------------------|
-------------------------|-------------------------|
-------------------------|-------------------------|
-----3--3--3--3---0---1--|-------------------------|
-------------------------|-------------------------|
-------------------------|-------------------------|


Last modified: 12/21/2009

VGJam Tabs GripShift - "Night Riding"
Tabs database last modified Tuesday, 01-Nov-2016 19:14:53 UTC.
Copyright © 1999 - 2016 VideoGameJam.com. All rights reserved.