VGJam Tabs The Orange Box
The Orange Box
"Team Fortress 2 theme" - Guitar tab
Platform(s):Multi-platformPersonal Computer / MacintoshPlayStation 3Xbox 360
Tabbed by:Deezer
Last modified:2010-01-02
Date added:2010-01-04
Print it:Original file (.TXT)
#----------------------------------PLEASE NOTE---------------------------------#
#This file is the author's own work and represents their interpretation of the #
#song. You may only use this file for private study, scholarship, or research. #
#------------------------------------------------------------------------------#


Team Fortress 2 (Multi-platform)
"Team Fortress 2"

Originally composed by: Mike Morasky
------------------------------------------------------------------------------
Tabbed by: Deezer (deezer AT videogamejam DOT com)
For http://www.videogamejam.com
------------------------------------------------------------------------------

Standard tuning - (low to high) EADGBe

Symbols used:
 / = slide up
 

Intro
=====

|-----------------------------|---------------------------|
|-----------------------------|---------------------------|
|-----------------------------|---------------------------|
|-----------------------------|---------------------------|
|-----------------------------|---------------------------|
|--6--7-7-7--6--7-7-7--6--7-7-|--7--6--7-7-7--7--6--5--3--|


Part A
======

Second guitar enters.

|--------------------------|--------------------------|
|--------------------------|--------------------------|
|--------------------------|--------------------------|
|--------------------------|--------------------------|
|--------------------------|--------------------------|
|--0--0--0--3--3--3--0--0--|--0--7--7--7--5--5--6--6--|
|
|
|--------------------------|--------------------------|
|--5--5--5--5--5--5--5--4--|--4--4--4--4--4--4--4--4--|
|--------------------------|--------------------------|
|--------------------------|--------------------------|
|--------------------------|--------------------------|
|--------------------------|--------------------------|


|--------------------------|--------------------------|
|--------------------------|--------------------------|
|--------------------------|--------------------------|
|--------------------------|--------------------------|
|--------------------------|--------------------------|
|--0--0--0--3--3--3--0--0--|--0--7--7--7--6--6--5--5--|
|
|
|--------------------------|--------------------------|
|--5--5--5--5--5--5--5-/8--|--8--8--8--8--8--8--8--8--|
|--------------------------|--------------------------|
|--------------------------|--------------------------|
|--------------------------|--------------------------|
|--------------------------|--------------------------|


|--------------------------|--------------------------|
|--------------------------|--------------------------|
|--------------------------|--------------------------|
|--------------------------|--------------------------|
|--------------------------|--------------------------|
|--0--0--0--3--3--3--0--0--|--0--7--7--7--5--5--6--6--|
|
|
|--------------------------|--------------------------|
|--5--5--5--5--5--5--5--4--|--4--4--4--4--4--4--4--4--|
|--------------------------|--------------------------|
|--------------------------|--------------------------|
|--------------------------|--------------------------|
|--------------------------|--------------------------|


|--------------------------|--------------------------|
|--------------------------|--------------------------|
|--------------------------|--------------------------|
|--------------------------|--------------------------|
|--------------------------|--------------------------|
|--0--0--0--3--3--3--0--0--|--0--0--1--1--2--2--3--3--|
|
|
|--------------------------|--------------------------|
|--5--5--5--5--5--5--5--5--|--5--5--5--5--5--5--5--5--|
|--------------------------|--------------------------|
|--------------------------|--------------------------|
|--------------------------|--------------------------|
|--------------------------|--------------------------|


|--------------------------|--------------------------|
|--------------------------|--------------------------|
|--------------------------|--------------------------|
|--------------------------|--------------------------|
|--------------------------|--------------------------|
|--0--0--0--3--3--3--0--0--|--0--7--7--7--5--5--6--6--|
|
|
|--------------------------|--------------------------|
|--5--5--5--5--5--5--5--4--|--4--4--4--4--4--4--4--4--|
|--------------------------|--------------------------|
|--------------------------|--------------------------|
|--------------------------|--------------------------|
|--------------------------|--------------------------|


|--------------------------|--------------------------|
|--------------------------|--------------------------|
|--------------------------|--------------------------|
|--------------------------|--------------------------|
|--------------------------|--------------------------|
|--0--0--0--3--3--3--0--0--|--0--7--7--7--6--6--5--5--|
|
|
|--------------------------|--------------------------|
|--5--5--5--5--5--5--5-/8--|--8--8--8--8--8--8--8--8--|
|--------------------------|--------------------------|
|--------------------------|--------------------------|
|--------------------------|--------------------------|
|--------------------------|--------------------------|


|--------------------------|--------------------------|
|--------------------------|--------------------------|
|--------------------------|--------------------------|
|--------------------------|--------------------------|
|--------------------------|--------------------------|
|--0--0--0--3--3--3--0--0--|--0--7--7--7--5--5--6--6--|
|
|
|--------------------------|--------------------------|
|--5--5--5--5--5--5--5--4--|--4--4--4--4--4--4--4--4--|
|--------------------------|--------------------------|
|--------------------------|--------------------------|
|--------------------------|--------------------------|
|--------------------------|--------------------------|


|--------------------------|--------------------------|
|--------------------------|--------------------------|
|--------------------------|--------------------------|
|--------------------------|--------------------------|
|--------------------------|--------------------------|
|--0--0--0--3--3--3--0--0--|--0--0--1--1--2--2--3--3--|
|
|
|--------------------------|--------------------------|
|--5--5--5--5--5--5--5--5--|--5--5--6--6--7--7--8--8--|
|--------------------------|--------------------------|
|--------------------------|--------------------------|
|--------------------------|--------------------------|
|--------------------------|--------------------------|


Rest for a while.


Part B
======

|-----------------------------|---------------------------|
|-----------------------------|---------------------------|
|-----------------------------|---------------------------|
|-----------------------------|---------------------------|
|-----------------------------|---------------------------|
|--6--7-7-7--6--7-7-7--6--7-7-|--7--6--7-7-7--7--6--5--3--|


|--------------------------|--------------------------|
|--------------------------|--------------------------|
|--------------------------|--------------------------|
|--------------------------|--------------------------|
|--------------------------|--------------------------|
|--0--0--0--3--3--3--0--0--|--0--7--7--7--5--5--6--6--|
|
|
|--------------------------|--------------------------|
|--5--5--5--5--5--5--5--4--|--4--4--4--4--4--4--4--4--|
|--------------------------|--------------------------|
|--------------------------|--------------------------|
|--------------------------|--------------------------|
|--------------------------|--------------------------|


|--------------------------|--------------------------|
|--------------------------|--------------------------|
|--------------------------|--------------------------|
|--------------------------|--------------------------|
|--------------------------|--------------------------|
|--0--0--0--3--3--3--0--0--|--0--7--7--7--6--6--5--5--|
|
|
|--------------------------|--------------------------|
|--5--5--5--5--5--5--5-/8--|--8--8--8--8--8--8--8--8--|
|--------------------------|--------------------------|
|--------------------------|--------------------------|
|--------------------------|--------------------------|
|--------------------------|--------------------------|


|--------------------------|--------------------------|
|--------------------------|--------------------------|
|--------------------------|--------------------------|
|--------------------------|--------------------------|
|--------------------------|--------------------------|
|--0--0--0--3--3--3--0--0--|--0--7--7--7--5--5--6--6--|
|
|
|--------------------------|--------------------------|
|--5--5--5--5--5--5--5--4--|--4--4--4--4--4--4--4--4--|
|--------------------------|--------------------------|
|--------------------------|--------------------------|
|--------------------------|--------------------------|
|--------------------------|--------------------------|


|--------------------------|
|--------------------------|
|--------------------------|
|--------------------------|
|--------------------------|
|--0--0--0--3--3--3--0--0--|
|
|
|--------------------------|
|--5--5--5--5--5--5--5--5--|
|--------------------------|
|--------------------------|
|--------------------------|
|--------------------------|


Rest for a longer while than before.


Outro
=====

|-----------------------------|---------------------------|-------------------|
|-----------------------------|---------------------------|-------------------|
|-----------------------------|---------------------------|-------------------|
|-----------------------------|---------------------------|-------------------|
|-----------------------------|---------------------------|-------------------|
|--6--7-7-7--6--7-7-7--6--7-7-|--7--6--7-7-7--7--6--5--3--|--0----------------|


Last modified: 01/02/2010

VGJam Tabs The Orange Box - "Team Fortress 2 theme"
Tabs database last modified Monday, 21-Jul-2014 21:11:05 CDT.
Copyright © 1999 - 2014 VideoGameJam.com. All rights reserved.