VGJam Tabs Silent Hill 2
Silent Hill 2
"Music box" - Guitar tab
Platform(s):PlayStation 2
Composed by:Akira Yamaoka
Tabbed by:Vincent Bouchard
Last modified:2006-10-13
Print it:Original file (.TXT)
Hear it:MIDI file
                                    MUSIC BOX
                                  Silent Hill 2

Transcribed by Vincent Bouchard

Gtr I (E A D G B E) - 'Lead'

  Q=130
 3/4
  Gtr I
  Q  Q  Q    H     Q    Q  E E  E E   H     Q
|----------|----------|-------------|----------|
|----------|----------|-------------|----------|
|-7--7--8--|-7--------|-7--7-8-10-8-|-7--------|
|----------|----------|-------------|----------|
|----------|------10--|-------------|------10--|
|----------|----------|-------------|----------|


  Q  Q  Q    Q   Q  Q    H     Q    H.
|----------|-----------|----------|-------|
|----------|-----------|----------|-------|
|-7--7--8--|-7--10--8--|-7--------|-7-----|
|----------|-----------|----------|-------|
|----------|-----------|------10--|-------|
|----------|-----------|----------|-------|


  Q  Q  Q    Q  Q  Q    Q   Q  Q     H    Q
|----------|----------|-----------|-----------|
|----------|----------|--------8--|-----------|
|-9--7-----|-9--7-----|-9--10-----|-10----7---|
|-------7--|-------7--|-----------|-----------|
|----------|----------|-----------|-----------|
|----------|----------|-----------|-----------|


  Q  Q  Q    Q  Q  Q    Q  Q  E  E   H.
|----------|----------|------------|-------*|
|----------|----------|------------|-------*|
|-9--7-----|-9--7-----|-7----------|-7-----*|
|-------7--|-------7--|----7--8-10-|-------*|
|----------|----------|------------|-------*|
|----------|----------|------------|-------*|


Duration Legend
---------------
W - whole; H - half; Q - quarter; E - 8th; S - 16th; T - 32nd; X - 64th; a - acciaccatura
+ - note tied to previous; . - note dotted; .. - note double dotted
Uncapitalized letters represent notes that are staccato (1/2 duration)
Irregular groupings are notated above the duration line
Duration letters will always appear directly above the note/fret number it represents the
duration for.  Duration letters with no fret number below them represent rests.  Multi-
bar rests are notated in the form Wxn, where n is the number of bars to rest for.  Low
melody durations appear below the staff

Tablature Legend
----------------
 h   - hammer-on
 p   - pull-off
 b   - bend
 pb  - pre-bend
 r   - bend release (if no number after the r, then release immediately)
 /\  - slide into or out of (from/to "nowhere")
 s   - legato slide
 S   - shift slide
  - natural harmonic
[n]  - artificial harmonic
n(n) - tapped harmonic
 ~   - vibrato
 tr  - trill
 T   - tap
 TP  - trem. picking
 PM  - palm muting
\n/  - tremolo bar dip; n = amount to dip
 \n  - tremolo bar down
 n/  - tremolo bar up
/n\  - tremolo bar inverted dip
 =   - hold bend; also acts as connecting device for hammers/pulls
 <>  - volume swell (louder/softer)
 x   - on rhythm slash represents muted slash
 o   - on rhythm slash represents single note slash

Misc Legend
-----------
 |  - bar
||  - double bar
||o - repeat start
o|| - repeat end
*|  - double bar (ending)
 :  - bar (freetime)
 $  - Segno
 &  - Coda
Tempo markers -  = BPM(8/16=s8/s16), where s8 = swing 8ths, s16 = swing 16ths


***************************************************************************************
* Generated using Power Tab Editor by Brad Larsen - http://powertab.guitarnetwork.org *
***************************************************************************************

VGJam Tabs Silent Hill 2 - "Music box"
Tabs database last modified Tuesday, 01-Nov-2016 19:14:53 UTC.
Copyright © 1999 - 2016 VideoGameJam.com. All rights reserved.