VGJam Tabs Silent Hill
Silent Hill
"Not Tomorrow (Lisa's theme)" - Guitar tab
Platform(s):PlayStation
Composed by:Akira Yamaoka
Tabbed by:Deezer
Last modified:2010-03-08
Date added:2010-04-07
Print it:Original file (.TXT)
#----------------------------------PLEASE NOTE---------------------------------#
#This file is the author's own work and represents their interpretation of the #
#song. You may only use this file for private study, scholarship, or research. #
#------------------------------------------------------------------------------#


Silent Hill (PlayStation)
"Not Tomorrow (Lisa's theme)"

Originally composed by: Akira Yamaoka
------------------------------------------------------------------------------
Tabbed by: Deezer (deezer AT videogamejam DOT com)
For http://www.videogamejam.com
------------------------------------------------------------------------------

Standard tuning - (low to high) EADGBe

Legend:
 h = hammer-on
 / = slide up


========
Guitar 1
========

Capo on 3rd fret.

  Riff A:

--------------------------|--------------------------|
--------0-----------0-----|--------0-----------0-----|
-----0-----0-----0-----0--|-----0-----0-----------0--|
--2-----------0-----------|-----------------4--------|
--------------------------|--3-----------2-----------|
--------------------------|--------------------------|

  Riff B:

--------------------------|--------------------------|
--------------1-----------|--0--------0--------------|
--0--------------0-----0--|-----0--------0-----------|
-----0-----0--------2-----|--------2--------2--4--2--|
--------2-----------------|--3-----------------------|
--3-----------------------|--------------------------|

--------------------------|--------------------------|
--------------1-----------|--0--------0--------------|
--0--------------0-----0--|-----0--------0-----------|
-----0-----0--------2-----|--------2--------2--------|
--------2-----------------|--3--------3--------------|
--3-----------------------|--------------------------|


========
Guitar 2
========

Played without a capo.

  [Guitar 1 plays Riff A.]

----------------------|----------------------|
----------------------|----------------------|
----------------------|----------------------|
----------------------|----------------------|
----------------------|----------------------|
----------------------|----------------------|

----------------------|----------------------|
----------------------|----------------------|
----------------------|----------------------|
----------------------|----------------------|
----------------------|----------------------|
----------------------|----------------------|

----------------------|----------------------|
----------------------|----------------------|
----------------------|----------------------|
----------------------|----------------------|
----------------------|----------------------|
----------------------|----------------------|

----------------------|----------------------|
----------------------|----------------------|
----------------------|----------------------|
----------------------|-------------------8--|
----------------------|----------------------|
----------------------|----------------------|

----------------------|--------------------------|
----------------------|--------------------------|
--5h7-----------------|----------7--7h8--7----5--|
----------------------|--------------------------|
----------------------|--------------------------|
----------------------|--------------------------|

----------------------|--------------------------|
----------------------|--------------------------|
----------7-----------|----------7--7h8--7----5--|
----------------------|--------------------------|
----------------------|--------------------------|
----------------------|--------------------------|

----------------------|-------------------------|
----------------------|-------------------------|
-------------------5--|-------------------------|
--8--------7----8-----|-----5----5--7-------5-7-|
----------------------|-------------------------|
----------------------|-------------------------|

----------------------|-------------------------|
----------------------|-------------------------|
-------------------5--|-------------------------|
--8--------7----8-----|-----5----5--7-------5-7-|
----------------------|-------------------------|
----------------------|-------------------------|

--------------------|--------------------------|
--------------------|--------------------------|
--7-----------------|----------7--7h8--7----5--|
--------------------|--------------------------|
--------------------|--------------------------|
--------------------|--------------------------|

--------------------|--------------------------|
--------------------|--------------------------|
-----7--------------|----------7--7h8--7----5--|
--------------------|--------------------------|
--------------------|--------------------------|
--------------------|--------------------------|

----------------------|-------------------------|
----------------------|-------------------------|
-------------------5--|-------------------------|
--8--------7----8-----|-----5----5--7-------5-7-|
----------------------|-------------------------|
----------------------|-------------------------|

----------------------|-------------------------|
----------------------|-------------------------|
-------------------5--|-------------------------|
7/8--------7----8-----|-----5----5--7-------5-7-|
----------------------|-------------------------|
----------------------|-------------------------|

  [Guitar 1 plays Riff B.]

---------------------------|---------------------------|
-------------6-------------|-------------8----6--------|
--7----7--7-------7----7-5-|--7----7--7------------7-5-|
---------------------------|---------------------------|
---------------------------|---------------------------|
---------------------------|---------------------------|

--------------------------|-----------------------|
------------6-------------|-----------------------|
--7----7---------7----7-5-|--7-----------------5--|
--------------------------|-------8----5----8-----|
--------------------------|-----------------------|
--------------------------|-----------------------|

---------------------------|---------------------------|
-------------6-------------|-------------8----6--------|
--7----7--7-------7----7-5-|--7----7--7------------7-5-|
---------------------------|---------------------------|
---------------------------|---------------------------|
---------------------------|---------------------------|

--------------------------|-----------------------||
------------6-------------|-----------------------||
--7----7-------7------7-5-|--7-----------------5--||
--------------------------|-------8----5----8-----||
--------------------------|-----------------------||
--------------------------|-----------------------||


Last modified: 03/08/2010

VGJam Tabs Silent Hill - "Not Tomorrow (Lisa's theme)"
Tabs database last modified Tuesday, 01-Nov-2016 19:14:53 UTC.
Copyright © 1999 - 2016 VideoGameJam.com. All rights reserved.