VGJam Tabs Super Mario World
Super Mario World
"Title screen" - Guitar tab
Platform(s):Super NES
Composed by:Koji Kondo
Tabbed by:Lee Robson
Last modified:2007-06-16
Date added:2010-04-07
Print it:Original file (.TXT)
Super Mario World - SNES
Title

Standard Tuning (E A D G B E)

|-10-10-10----10-10-10----11--------10-------|
|-------------------------10-----------10----|
|--------------------------------------------|
|----------12----------12-----------------12-|
|--------------------------------------------|
|--------------------------------------------|


|----------------------------------------------------|
|----12-12-12----12-12-12----12-12-12-12h13-12----10-|
|----------------------------------------------------|
|-12----------12----------12-------------------------|
|----------------------------------------------------|
|----------------------------------------------------|

|----------------------------------------------------|
|----10-10-10----10-10-10----10-10-10-10h12-10-------|
|-------------------------------------------------12-|
|-12----------12----------12-------------------------|
|----------------------------------------------------|
|----------------------------------------------------|

|-------------------------------------------------12-|
|----12-12-12----12-12-12----12-12-12-10-12-13-------|
|----------------------------------------------------|
|-12----------12----------12-------------------------|
|----------------------------------------------------|
|----------------------------------------------------|

|-10-10-10-------------------|
|-------------13-13-13-------|
|----------------------11-12-|
|----------12----------------|
|----------------------------|
|----------------------------|


|-----------3----2-------5----3-2----5--8--7-|
|-3------3---------4--5-----------3----------|
|---5-4--------------------------------------|
|--------------------------------------------|
|--------------------------------------------|
|--------------------------------------------|

|-----------3----2-------5------------7-8--8------|
|-3------3---------4--5-------2-3--3----------7-8-|
|---5-4-------------------------------------------|
|-------------------------------------------------|
|-------------------------------------------------|
|-------------------------------------------------|


|---------2-3--8-------------------|
|-4-5-5-5---------0-1-0---0--------|
|-----------------------2---2-0----|
|--------------------------------0-|
|----------------------------------|
|----------------------------------|

|---------2-3--8-------------------|
|-4-5-5-5---------0-1-0---0--------|
|-----------------------2---2-0----|
|--------------------------------0-|
|----------------------------------|
|----------------------------------|

|---------2-3--8--10----------10----------11--------------------10-|
|-4-5-5-5---------------10----------10----10-----------------10----|
|------------------------------------------------------------------|
|--------------------12----12----12----12-----------------12-------|
|------------------------------------------------------12----------|
|---------------------------------------------------10-------------|

Lee Robson LTRobson@gmail.com 16/06/07

VGJam Tabs Super Mario World - "Title screen"
Tabs database last modified Tuesday, 01-Nov-2016 19:14:53 UTC.
Copyright © 1999 - 2016 VideoGameJam.com. All rights reserved.