VGJam Tabs Super Mario World
Super Mario World
"Cave" - Guitar tab
Platform(s):Super NES
Composed by:Koji Kondo
Tabbed by:Lee Robson
Last modified:2007-06-16
Date added:2010-04-07
Print it:Original file (.TXT)
Super Mario World - SNES
Cave

Standard Tuning (E A D G B E)

|-----------------|
|-----------------|
|-----------------|
|-3---1-------1---|
|---3---3-4-1---3-|
|-----------------|
  - - - - - - - - (palm-muting)


|----------------------------------------------------|
|----------------------------------------------------|
|-2----------------------------5---------------------|
|---3------3-----------------3----6--------------(7)-|
|------3-5----------------3--------------------------|
|----------------------------------------------------|

|----------------------------------------------------|
|----------------------------------------------------|
|-2----------------------------5---------------------|
|---3------3-----------------3----6--------------(7)-|
|------3-5----------------3--------------------------|
|----------------------------------------------------|


|-------------------------------|
|-------------------------------|
|-2-------2---------1------1--0-|
|----3-------3--------3---------|
|-------3---------------3-------|
|-------------------------------|

|-------------------------------|
|-------------------------------|
|-2-------2---------1------1--0-|
|----3-------3--------3---------|
|-------3---------------3-------|
|-------------------------------|

Lee Robson LTRobson@gmail.com 16/06/07
VGJam Tabs Super Mario World - "Cave"
Tabs database last modified Tuesday, 01-Nov-2016 19:14:53 UTC.
Copyright © 1999 - 2016 VideoGameJam.com. All rights reserved.