VGJam Tabs Super Mario World
Super Mario World
"Yoshi's Island map screen" - Guitar tab
Platform(s):Super NES
Composed by:Koji Kondo
Tabbed by:Lee Robson
Last modified:2007-06-16
Date added:2010-04-07
Print it:Original file (.TXT)
Super Mario World - SNES
Yoshi's Island

Standard Tuning (E A D G B E)

|----------------------3-5--3------------------------5-7--5---|
|-------------------------------------------------------------|
|----------5-----------------------------7--------------------|
|--------5----5------------------------7----7-----------------|
|-3--3-3---------3-3-3--------3-5--5-5---------5-5-5--------5-|
|-------------------------------------------------------------|

|--------------------------|
|--------------------------|
|----------5---------------|
|--------5----5-10-9-8-7-6-|
|-3--3-3-------------------|
|----------------8-7-6-5-4-|

Lee Robson LTRobson@gmail.com 16/06/07
VGJam Tabs Super Mario World - "Yoshi's Island map screen"
Tabs database last modified Tuesday, 01-Nov-2016 19:14:53 UTC.
Copyright © 1999 - 2016 VideoGameJam.com. All rights reserved.