VGJam Tabs Super Mario Bros. 3
Super Mario Bros. 3
"Hammer Bros. battle" - Guitar tab
Platform(s):Nintendo Entertainment System
Composed by:Koji Kondo
Tabbed by:Lee Robson
Last modified:2007-06-16
Date added:2010-04-07
Print it:Original file (.TXT)
Super Mario Bros. 3 - NES
Hammer Bros.

Standard Tuning (E A D G B E)

|-------------------|
|-------------------|
|-------8---10---11-|
|-10----------------|
|-------6----8----9-|
|--8----------------|


|---------------------------------|
|---------------------------------|
|-------------1-2-------------1-2-|
|-----1-2-3-3---------1-2-3-3-----|
|-3-3-------------3-3-------------|
|---------------------------------|


|-------------------------------|
|-4-5-4-5-3----------4p3--------|
|-----------5-2-5--5-----5--2-5-|
|-------------------------------|
|-------------------------------|
|-------------------------------|

|-------------------------------|
|-4-5-4-5-3----------4p3--------|
|-----------5-2-5--5-----5--2-5-|
|-------------------------------|
|-------------------------------|
|-------------------------------|


|-3-3-5-6-6/7-3--3---------------------------------3-3-3-3-3-3-3-|
|------------------6-6-4-6----3---4-4-3-4-3----------------------|
|---------------------------5---5-----------5-2-5----------------|
|----------------------------------------------------------------|
|----------------------------------------------------------------|
|----------------------------------------------------------------|

Lee Robson LTRobson@gmail.com 16/06/07
VGJam Tabs Super Mario Bros. 3 - "Hammer Bros. battle"
Tabs database last modified Tuesday, 01-Nov-2016 19:14:53 UTC.
Copyright © 1999 - 2016 VideoGameJam.com. All rights reserved.