VGJam Tabs Super Mario Bros.
Super Mario Bros.
"World clear" - Guitar tab
Platform(s):Nintendo Entertainment System
Composed by:Koji Kondo
Tabbed by:Deezer
Last modified:2011-02-23
Date added:2011-03-27
Print it:Original file (.TXT)
#----------------------------------PLEASE NOTE---------------------------------#
#This file is the author's own work and represents their interpretation of the #
#song. You may only use this file for private study, scholarship, or research. #
#------------------------------------------------------------------------------#

Super Mario Bros. (Nintendo Entertainment System)
"World clear"

Originally composed by: Koji Kondo
------------------------------------------------------------------------------
Tabbed by: Deezer (deezer AT videogamejam DOT com)
For http://www.videogamejam.com
------------------------------------------------------------------------------

This is the fanfare that plays when Mario (or Luigi) beats a castle stage.

Standard tuning (low to high: EADGBe)


|-------------------|-------------------|
|-13-------13-------|-13----------------|
|----12-------12----|-------------------|
|-------14-------14-|-------------------|
|-------------------|-------------------|
|-------------------|-------------------|

-------------------|-------------------|
-14-------14-------|-14----------------|
----13-------13----|-------------------|
-------15-------15-|-------------------|
-------------------|-------------------|
-------------------|-------------------|

-------------------|-------------------|
-16-------16-------|-16-------18-18-18-|
----15-------15----|-------------------|
-------17-------17-|-------------------|
-------------------|-------------------|
-------------------|-------------------|

-15----------------|
-------------------|
-------------------|
-------------------|
-------------------|
-------------------|


Last modified: 02/23/2011

VGJam Tabs Super Mario Bros. - "World clear"
Tabs database last modified Tuesday, 01-Nov-2016 19:14:53 UTC.
Copyright © 1999 - 2016 VideoGameJam.com. All rights reserved.