VGJam Tabs Donkey Kong
Donkey Kong
"Title screen" - Guitar tab
Platform(s):Nintendo Entertainment System
Composed by:Yukio Kaneoka
Tabbed by:Deezer
Last modified:2011-03-01
Date added:2011-03-27
Print it:Original file (.TXT)
#----------------------------------PLEASE NOTE---------------------------------#
#This file is the author's own work and represents their interpretation of the #
#song. You may only use this file for private study, scholarship, or research. #
#------------------------------------------------------------------------------#

Donkey Kong (NES)
"Title screen"

Originally composed by: Yukio Kaneoka
------------------------------------------------------------------------------
Tabbed by: Deezer (deezer AT videogamejam DOT com)
For http://www.videogamejam.com
------------------------------------------------------------------------------

Tuning: Standard (low to high: EADGBe)


|----------|--------------------------|
|----------|--10----------------------|
|----------|---------------9--12--10--|
|--10--10--|--------------------------|
|----------|--------------------------|
|----------|--------------------------|

------------------------|---------------------------|
------------------------|--11-----------------------|
------------------------|---------------12--14--12--|
--12------------12--12--|---------------------------|
------------------------|---------------------------|
------------------------|---------------------------|

------------------------|---------------------------|
------------------------|--13-------------------13--|
------------------------|---------------14--15------|
--14------------14--14--|---------------------------|
------------------------|---------------------------|
------------------------|---------------------------|

------------------------|--------------------------|
--15--------------------|--10----------------------|
----------------10--12--|---------------9--10--12--|
------------------------|--------------------------|
------------------------|--------------------------|
------------------------|--------------------------|

--------------------|
--------------------|
--10----------------|
--------------------|
--------------------|
--------------------|


Last modified: 03/01/2011

VGJam Tabs Donkey Kong - "Title screen"
Tabs database last modified Tuesday, 01-Nov-2016 19:14:53 UTC.
Copyright © 1999 - 2016 VideoGameJam.com. All rights reserved.