VGJam Tabs Cannon Fodder
Cannon Fodder
"War Has Never Been So Much Fun" - Guitar tab
Platform(s):Multi-platform
Composed by:Jon Hare
Tabbed by:Deezer
Last modified:2011-01-24
Date added:2011-03-27
Print it:Original file (.TXT)
#----------------------------------PLEASE NOTE---------------------------------#
#This file is the author's own work and represents their interpretation of the #
#song. You may only use this file for private study, scholarship, or research. #
#------------------------------------------------------------------------------#

Cannon Fodder (Multi-platform)
"War Has Never Been So Much Fun"

Originally composed by: Jon Hare
------------------------------------------------------------------------------
Tabbed by: Deezer (deezer AT videogamejam DOT com)
For http://www.videogamejam.com
------------------------------------------------------------------------------

Tuning: Drop D, down one half step (low to high: Db Ab Db Gb Bb eb)


Guitars 1 and 2 repeat this throughout the entire song:

     Dm          C            Dm          C
G1 |-5-----------3----------|-5-----------3----------|
U  |-6-----------5----------|-6-----------5----------|
I  |-7-----------5----------|-7-----------5----------|
T  |------------------------|------------------------|
A  |------------------------|------------------------|
R  |------------------------|------------------------|
   |
G2 |----5-----5-----3-----3-|----5-----5-----3-----3-|
U  |----6-----6-----5-----5-|----6-----6-----5-----5-|
I  |----7-----7-----5-----5-|----7-----7-----5-----5-|
T  |------------------------|------------------------|
A  |------------------------|------------------------|
R  |------------------------|------------------------|


Guitar 3 does the rest.

|-------------------|-------------------|
|-------------------|-------------------|
|-------------------|-------------------|
|-------------------|-------------------|
|-------------------|-------------------|
|-------------------|-------------------|

 -------------------|--17-17---17-------------------|
 -------------------|-------------18------20--------|
 -------------------|-----------------19------------|
 -------------------|-------------------------------|
 -------------------|-------------------------------|
 -------------------|-------------------------------|

 ----------------------------|-----------------------|
 ----------------------------|-----------------------|
 --7---7---------------4-5-6-|--7---7----------------|
 ----------------------------|-----------------------|
 --5---5---------------2-3-4-|--5---5----------------|
 ----------------------------|-----------------------|
  "War..."

 ----------------------------|-----------------------|
 ----------------------------|-----------------------|
 --7---7---------------4-5-6-|--7---7----------------|
 ----------------------------|-----------------------|
 --5---5---------------2-3-4-|--5---5----------------|
 ----------------------------|-----------------------|

 -----------------------|-----------------------|
 -----------------------|-----------------------|
 --7---7----------------|--7---7----------------|
 -----------------------|-----------------------|
 --5---5----------------|--5---5----------------|
 -----------------------|-----------------------|
  "Go up to your brother..."

 -------------------|--17-17---17-------------------|
 -------------------|-------------18------20--------|
 -------------------|-----------------19------------|
 -------------------|-------------------------------|
 -------------------|-------------------------------|
 -------------------|-------------------------------|

 ----------------------------|-----------------------|
 ----------------------------|-----------------------|
 --7---7---------------4-5-6-|--7---7----------------|
 ----------------------------|-----------------------|
 --5---5---------------2-3-4-|--5---5----------------|
 ----------------------------|-----------------------|

 ----------------------------|-----------------------|
 ----------------------------|-----------------------|
 --7---7---------------4-5-6-|--7---7----------------|
 ----------------------------|-----------------------|
 --5---5---------------2-3-4-|--5---5----------------|
 ----------------------------|-----------------------|

 -----------------------|-----------------------|
 -----------------------|-----------------------|
 --7---7----------------|--7---7----------------|
 -----------------------|-----------------------|
 --5---5----------------|--5---5----------------|
 -----------------------|-----------------------|

 -------------------|--17-17---17-------------------|
 -------------------|-------------18------20--------|
 -------------------|-----------------19------------|
 -------------------|-------------------------------|
 -------------------|-------------------------------|
 -------------------|-------------------------------|

 -------------------|--17-17---17-------------------|
 -------------------|-------------18------20--------|
 -------------------|-----------------19------------|
 -------------------|-------------------------------|
 -------------------|-------------------------------|
 -------------------|-------------------------------|

 -----------------------|-----------------------|
 -----------------------|-----------------------|
 --7---7----------------|-----------------------|
 -----------------------|-----------------------|
 --5---5----------------|--5---5----------------|
 -----------------------|--0---0----------------|

 -----------------------|-----------------------|
 -----------------------|-----------------------|
 --7---7----------------|-----------------------|
 -----------------------|-----------------------|
 --5---5----------------|--5---5----------------|
 -----------------------|--0---0----------------|

 -----------------------|-----------------------|
 -----------------------|-----------------------|
 --7---7----------------|-----------------------|
 -----------------------|-----------------------|
 --5---5----------------|--5---5----------------|
 -----------------------|--0---0----------------|

 -------------------|--17-17---17-------------------|
 -------------------|-------------18------20--------|
 -------------------|-----------------19------------|
 -------------------|-------------------------------|
 -------------------|-------------------------------|
 -------------------|-------------------------------|

 ------------------------|-------------------|
 ------------------------|-------------------|
 -----------7---7--------|-------------------|
 ------------------------|-------------------|
 -----------5---5--------|-------------------|
 ------------------------|-------------------|

 -------------------|-------------------|
 -------------------|-------------------|
 -------------------|-------------------|
 -------------------|-------------------|
 -------------------|-------------------|
 -------------------|-------------------|

 -----------------------|-----------------------|
 -----------------------|-----------------------|
 --7---7----------------|-----------------------|
 -----------------------|-----------------------|
 --5---5----------------|--5---5----------------|
 -----------------------|--0---0----------------|

 -----------------------|-----------------------|
 -----------------------|-----------------------|
 --7---7----------------|-----------------------|
 -----------------------|-----------------------|
 --5---5----------------|--5---5----------------|
 -----------------------|--0---0----------------|
 
 -----------------------|--17-17---17-------------------|
 -----------------------|-------------18------20--------|
 --7---7----------------|-----------------19------------|
 -----------------------|-------------------------------|
 --5---5----------------|-------------------------------|
 -----------------------|-------------------------------|
 
 -----------------------|--17-17---17-------------------|
 -----------------------|-------------18------20--------|
 -----------------------|-----------------19------------|
 -----------------------|-------------------------------|
 -----------------------|-------------------------------|
 -----------------------|-------------------------------|

 -------------------|-------------------|
 -------------------|-------------------|
 -------------------|-------------------|
 -------------------|-------------------|
 -------------------|-------------------|
 -------------------|-------------------|

 ----------------------------|-----------------------|
 ----------------------------|-----------------------|
 --7---7---------------4-5-6-|--7---7----------------|
 ----------------------------|-----------------------|
 --5---5---------------2-3-4-|--5---5----------------|
 ----------------------------|-----------------------|

 ----------------------------|-----------------------|
 ----------------------------|-----------------------|
 --7---7---------------4-5-6-|--7---7----------------|
 ----------------------------|-----------------------|
 --5---5---------------2-3-4-|--5---5----------------|
 ----------------------------|-----------------------|

 -----------------------|-----------------------|
 -----------------------|-----------------------|
 --7---7----------------|--7---7----------------|
 -----------------------|-----------------------|
 --5---5----------------|--5---5----------------|
 -----------------------|-----------------------|

 -----------------------|--17-17---17-------------------|
 -----------------------|-------------18------20--------|
 --7---7----------------|-----------------19------------|
 -----------------------|-------------------------------|
 --5---5----------------|-------------------------------|
 -----------------------|-------------------------------|

 -----------------------|--17-17---17-------------------|
 -----------------------|-------------18------20--------|
 --7---7----------------|-----------------19------------|
 -----------------------|-------------------------------|
 --5---5----------------|-------------------------------|
 -----------------------|-------------------------------|

 -----------------------|--17-17---17-------------------|
 -----------------------|-------------18------20--------|
 --7---7----------------|-----------------19------------|
 -----------------------|-------------------------------|
 --5---5----------------|-------------------------------|
 -----------------------|-------------------------------|

 -----------------------|-------------------||
 -----------------------|-------------------||
 --7---7----------------|-------------------||
 -----------------------|-------------------||
 --5---5----------------|-------------------||
 -----------------------|-------------------||

                          Guitars 1 and 2 tacit.


Last modified: 1/24/2011

VGJam Tabs Cannon Fodder - "War Has Never Been So Much Fun"
Tabs database last modified Tuesday, 01-Nov-2016 19:14:53 UTC.
Copyright © 1999 - 2016 VideoGameJam.com. All rights reserved.