VGJam Tabs Silent Hill 3
Silent Hill 3
"End of Small Sanctuary" - Guitar tab
Platform(s):PlayStation 2
Composed by:Akira Yamaoka
Soundtrack:Silent Hill 3 Original Soundtracks [KOLA-038] (track 04)
Tabbed by:Deezer
Last modified:2005-04-03
Print it:Original file (.TXT)
#----------------------------------PLEASE NOTE---------------------------------#
#This file is the author's own work and represents their interpretation of the #
#song. You may only use this file for private study, scholarship, or research. #
#------------------------------------------------------------------------------#

Silent Hill 3 (PlayStation 2)
"End of Small Sanctuary"

Originally composed by: Akira Yamaoka
------------------------------------------------------------------------------
Tabbed by: Deezer (deezer AT videogamejam DOT com)
For http://www.videogamejam.com
------------------------------------------------------------------------------

Symbols used:
 harm. = natural harmonics

Tuning: Down 1/2 step (low to high) EbAbDbGbBbeb


Guitar 1 plays this throughout whole song:

|---------------------------------------------|
|-0--0--3--0----------------------------------|
|-0--0--0--0----------------------------------|
|-2--2--2--2----------------------------------|
|-3--3--3--3----------------------------------|
|---------------------------------------------|

Fill 1 - Second guitar:

|----0-----0-----0-----0-|
|-------3-----------3----|
|-2-----------2----------|
|------------------------|
|------------------------|
|------------------------| repeat for a while


Fill 2 - Guitar w/ wicked cool effect:

|--------------------------------------|
|-------3-----------------3------------|
|------------0-----------------0-------|
|----2-----------------2------------2--|
|-3-----------------3------------------|
|--------------------------------------| x4


Fill 3 - Guitar w/ echo effect:

 harm.........................................................................
-12---------------------------------------------------------------------------
-----12-----------------------------------------------------------------------
----------------------------------------12------------------------------------
------------------------------------------------------------------------------
------------------------------------------------------------------------------
------------------------------------------------------------------------------


Last revised: 04/03/2005

VGJam Tabs Silent Hill 3 - "End of Small Sanctuary"
Tabs database last modified Tuesday, 01-Nov-2016 19:14:53 UTC.
Copyright © 1999 - 2016 VideoGameJam.com. All rights reserved.