VGJam Tabs Silent Hill Homecoming
Silent Hill Homecoming
"One More Soul to the Call" - Guitar tab
Platform(s):Multi-platform
Composed by:Akira Yamaoka
Soundtrack:Silent Hill Homecoming Soundtrack (track 01)
Tabbed by:Deezer
Last modified:2011-12-01
Date added:2011-12-03
Print it:Original file (.TXT)
#----------------------------------PLEASE NOTE---------------------------------#
#This file is the author's own work and represents their interpretation of the #
#song. You may only use this file for private study, scholarship, or research. #
#------------------------------------------------------------------------------#


Silent Hill Homecoming (Multi-platform)
"One More Soul to the Call"

Originally composed by: Akira Yamaoka
------------------------------------------------------------------------------
Tabbed by: Deezer (deezer AT videogamejam DOT com)
For http://www.videogamejam.com
------------------------------------------------------------------------------

Standard tuning - (low to high) EADGBe

Legend:
 pm...   = palm mute
 harm... = natural harmonics
       \ = slide down


Intro:
======

[Guitar 1 plays this rolled E minor chord three times]

|--0----------------|
|--0----------------|
|--0----------------|
|--2----------------|
|--2----------------|
|--0----------------|


Verse:
======

Let ring throughout.

Guitar 1:

|---------------------------|--------------------------|
|---------------------------|--------------------------|
|*--------------------------|--------------------------|
|*--------2--------2--------|--2--------2--------2-----|
|------0--------0--------0--|--------0--------0--------|
|---1--------1--------1-----|-----1--------1--------1--|


 --------------------------|---------------------------|
 --------------------------|---------------------------|
 --------------------------|--------------------------*|
 --------2--------2--------|--2--------2--------2-----*|
 -----0--------0--------0--|--------0--------0---------|
 --0--------0--------0-----|-----0--------0--------0---| 4x

Guitar 2 enters:
 [all Guitar 2's power chords are rolled.]

|--------------------------|--------------------------|
|-----------0--------3-----|--------3-----------0-----|
|-----------------2-----2--|-----0-----------0-----0--|
|--------2-----0-----------|--------------------------|
|-----2--------------------|--3--------3--2-----------|
|--0-----------------------|--------------------------|
|
|
|--------------------------|--------------------------|
|--------------------------|--------------------------|
|--9-----------7-----------|--5-----------4-----------|
|--9-----------7-----------|--5-----------4-----------|
|--7-----------5-----------|--3-----------2-----------|
|--------------------------|--------------------------|

This part is played four times, then on to Pre-chorus.


Pre-chorus:
===========

|--------------------------|--------------------------|
|--------------------------|-----------------------5--|
|--------------------4-----|-----4--5-----4--5--7-----|
|--4--5--7--4--5--7-----5--|--7--------7--------------|
|--------------------------|--------------------------|
|--------------------------|--------------------------|
|
|
|--------------------------|--------------------------|
|--------------------------|--------------------------|
|--------------------------|--------------------------|
|--2-----------2-----------|--2-----------2-----------|
|--2-----------3-----------|--4-----------3-----------|
|--0-----------0-----------|--0-----------0-----------|

Repeat 4x, then let notes ring for another 3 beats before starting Chorus.

Chorus:
=======

Note: Though the spacing looks weird for the double-digit fret numbers,
      Guitar 1 still plays eighth notes there.

|--------------------------|--------------------------|
|--------------------------|--------------------------|
|--4--4--4-----7--7--7--4--|--9--9--9--4-11-11-12-----|
|--------------------------|--------------------------|
|--2--2--2-----5--5--5--2--|--7--7--7--2--9--9-10-----|
|--------------------------|--------------------------|
|
|
|--------------------------|--------------------------|
|--------------------------|--------------------------|
|--9--9--9-----7--7--7-----|--5--5--5-----4--4--4-----|
|--9--9--9-----7--7--7-----|--5--5--5-----4--4--4-----|
|--7--7--7-----5--5--5-----|--3--3--3-----2--2--2-----|
|--------------------------|--------------------------|


|--------------------------|--------------------------|
|--------------------------|--------------------------|
|--4--4--4-----7--7--7--4--|--9--9--9--4-11-11-12-11--|
|--------------------------|--------------------------|
|--2--2--2-----5--5--5--2--|--7--7--7--2--9--9-10--9--|
|--------------------------|--------------------------|
|
|
|--------------------------|--------------------------|
|--------------------------|--------------------------|
|--9--9--9-----7--7--7-----|--5--5--5-----4--4--4-----|
|--9--9--9-----7--7--7-----|--5--5--5-----4--4--4-----|
|--7--7--7-----5--5--5-----|--3--3--3-----2--2--2-----|
|--------------------------|--------------------------|


|--------------------------|--------------------------|
|--------------------------|--------------------------|
|--4--4--4-----7--7--7--4--|--9--9--9--4-11-11-12-----|
|--------------------------|--------------------------|
|--2--2--2-----5--5--5--2--|--7--7--7--2--9--9-10-----|
|--------------------------|--------------------------|
|
|
|--------------------------|--------------------------|
|--------------------------|--------------------------|
|--9--9--9-----7--7--7-----|--5--5--5-----4--4--4-----|
|--9--9--9-----7--7--7-----|--5--5--5-----4--4--4-----|
|--7--7--7-----5--5--5-----|--3--3--3-----2--2--2-----|
|--------------------------|--------------------------|


|--------------------------|--------------------------|
|--------------------------|--------------------------|
|--4--4--4-----7--7--7--4--|--9--9--9--4-11-11-12-----|
|--------------------------|--------------------------|
|--2--2--2-----5--5--5--2--|--7--7--7--2--9--9-10-----|
|--------------------------|--------------------------|
|                                                  *
|
|--------------------------|--------------------------|
|--------------------------|--------------------------|
|--9--9--9-----7--7--7-----|--5--5--5-----4--4--4-----|
|--9--9--9-----7--7--7-----|--5--5--5-----4--4--4-----|
|--7--7--7-----5--5--5-----|--3--3--3-----2--2--2-----|
|--------------------------|--------------------------|

 * Insert another G octave when playing the Chorus before the Interlude.
   Insert an F# octave when playing Outro-Chorus.

Next: play Verse, Pre-chorus, and Chorus again.
Then we go to the Interlude:

Interlude:
==========

Three guitars!

|-----------3--------5-----|--------------------------|
|--------5--------5-----5--|--------------------------|
|-----4--------------------|--------------------------|
|--------------------------|--------------------------|
|--------------------------|--------------------------|
|--------------------------|--------------------------|
|
|
|--------0-----------0-----|--------0-----------0-----|
|--------0-----------0-----|--------0-----------0-----|
|--------0-----------0-----|--------0-----------0-----|
|--2--2--2-----2--2--2-----|--2--2--2-----2--2--2-----|
|--2--2--------2--2--------|--2--2--------2--2--------|
|--0--0--------0--0--------|--0--0--------0--0--------|
|  pm..        pm..           pm..        pm..
|
|--------------------------|--------------------------|
|--------------------------|--------------------------|
|--------------------------|-----------------12----5--|
|--------------------------|-----5--5-----------------|
|--------------------------|-----------4--4-----4-----|
|--------------------------|--------------------------|
                                 harm................

								 
|-----------3--------5-----|-------------------------|
|--------5--------5-----5--|-------------------------|
|-----4--------------------|-------------------------|
|--------------------------|-------------------------|
|--------------------------|-------------------------|
|--------------------------|-------------------------|
|
|
|--------0-----------0-----|--------0-----------0----|
|--------0-----------0-----|--------0-----------0----|
|--------0-----------0-----|--------0-----------0----|
|--2--2--2-----2--2--2-----|--2--2--2-----2--2--2----|
|--2--2--------2--2--------|--2--2--------2--2-------|
|--0--0--------0--0--------|--0--0--------0--0-------|
|  pm..        pm..           pm..        pm..
|
|--------------------------|--------------------------|
|--------------------------|--------------------------|
|--------------------------|-----------------12----5--|
|--------------------------|-----5--5-----------------|
|--------------------------|-----------4--4-----4-----|
|--------------------------|--------------------------|
                                 harm................

|-----------3--------5-----|-------------------------|
|--------5--------5-----5--|-------------------------|
|-----4--------------------|-------------------------|
|--------------------------|-------------------------|
|--------------------------|-------------------------|
|--------------------------|-------------------------|
|
|
|--------0-----------0-----|--------0-----------0----|
|--------0-----------0-----|--------0-----------0----|
|--------0-----------0-----|--------0-----------0----|
|--2--2--2-----2--2--2-----|--2--2--2-----2--2--2----|
|--2--2--------2--2--------|--2--2--------2--2-------|
|--0--0--------0--0--------|--0--0--------0--0-------|
|  pm..        pm..           pm..        pm..
|
|--------------------------|--------------------------|
|--------------------------|--------------------------|
|--------------------------|-----------------12----5--|
|--------------------------|-----5--5-----------------|
|--------------------------|-----------4--4-----4-----|
|--------------------------|--------------------------|
                                 harm................

|-----------3--------5-----|-------------------------|
|--------5--------5-----5--|-------------------------|
|-----4--------------------|-------------------------|
|--------------------------|-------------------------|
|--------------------------|-------------------------|
|--------------------------|-------------------------|
|
|
|--------0-----------0-----|--------0-----------0----|
|--------0-----------0-----|--------0-----------0----|
|--------0-----------0-----|--------0-----------0----|
|--2--2--2-----2--2--2-----|--2--2--2-----2--2--2----|
|--2--2--------2--2--------|--2--2--------2--2-------|
|--0--0--------0--0--------|--0--0--------0--0-------|
|  pm..        pm..           pm..        pm..
|
|--------------------------|--------------------------|
|--------------------------|--------------------------|
|--------------------------|--------------------------|
|--------------------------|--------------------------|
|--------------------------|--------------------------|
|--------------------------|--------------------------|


Bridge:
=======

|--------------------------|--------------------------|
|--------------------------|--------------------------|
|--------------------------|--------------------------|
|--9--9--9--9--9--9--9--8--|--8--8--8--8--8--8--8--7--|
|--9--9--9--9--9--9--9--8--|--8--8--8--8--8--8--8--7--|
|--7--7--7--7--7--7--7--6--|--6--6--6--6--6--6--6--5--|
|
|
|--7-----------------------|--6-----------------------|
|--7-----------------------|--6-----------------------|
|--8-----------------------|--7-----------------------|
|--9-----------------------|--8-----------------------|
|--------------------------|--------------------------|
|--------------------------|--------------------------|


|--------------------------|--------------------------|
|--------------------------|--------------------------|
|-----0--------------------|--------------------------|
|--7--7--7--7--7--7--7--8--|--8--8--8--8--8--8--8--9--|
|--7--7--7--7--7--7--7--8--|--8--8--8--8--8--8--8--9--|
|--5--5--5--5--5--5--5--6--|--6--6--6--6--6--6--6--7--|
|     * inadvertent G note
|
|--5-----------------------|--6-----------------------|
|--5-----------------------|--6-----------------------|
|--6-----------------------|--7-----------------------|
|--7-----------------------|--8-----------------------|
|--------------------------|--------------------------|
|--------------------------|--------------------------|


|--------------------------|--------------------------|
|--------------------------|--------------------------|
|--------------------------|--------------------------|
|--9--9--9--9--9--9--9--8--|--8--8--8--8--8--8--8--7--|
|--9--9--9--9--9--9--9--8--|--8--8--8--8--8--8--8--7--|
|--7--7--7--7--7--7--7--6--|--6--6--6--6--6--6--6--5--|
|
|
|--7-----------------------|--6-----------------------|
|--7-----------------------|--6-----------------------|
|--8-----------------------|--7-----------------------|
|--9-----------------------|--8-----------------------|
|--------------------------|--------------------------|
|--------------------------|--------------------------|


|--------------------------|--------------------------|
|--------------------------|--------------------------|
|--------------------------|--------------------------|
|--7--7--7--7--7--7--7--8--|--8--8--8--8--8--8--8-----|
|--7--7--7--7--7--7--7--8--|--8--8--8--8--8--8--8-----|
|--5--5--5--5--5--5--5--6--|--6--6--6--6--6--6--6-----|
|
|
|--5-----------------------|--6-----------------------|
|--5-----------------------|--6-----------------------|
|--6-----------------------|--7-----------------------|
|--7-----------------------|--8-----------------------|
|--------------------------|--------------------------|
|--------------------------|--------------------------|

Play Pre-chorus again, then:

Outro-Chorus:
=============

The Outro-Chorus is basically the Chorus played twice, but the final bar
ends with a downward slide like so:

|--------------------------|--------------------------|
|--------------------------|--------------------------|
|--4--4--4-----7--7--7--4--|--9--9--9--4-11-11-12-----|
|--------------------------|--------------------------|
|--2--2--2-----5--5--5--2--|--7--7--7--2--9--9-10-14\-|
|--------------------------|--------------------------|
|
|
|--------------------------|--------------------------|
|--------------------------|--------------------------|
|--9--9--9-----7--7--7-----|--5--5--5-----4--4--4-----|
|--9--9--9-----7--7--7-----|--5--5--5-----4--4--4-----|
|--7--7--7-----5--5--5-----|--3--3--3-----2--2--2-----|
|--------------------------|--------------------------|

End.


Last modified: 12/01/2011

VGJam Tabs Silent Hill Homecoming - "One More Soul to the Call"
Tabs database last modified Tuesday, 01-Nov-2016 19:14:53 UTC.
Copyright © 1999 - 2016 VideoGameJam.com. All rights reserved.