VGJam Tabs Super Smash Bros. Brawl
Super Smash Bros. Brawl
"Online practice stage" - Guitar tab
Platform(s):Wii
Tabbed by:Wig
Last modified:2011-11-17
Date added:2011-12-03
Print it:Original file (.TXT)
SYSTEM: Nintendo Wii
GAME: Super Smash Bros Brawl
SONG: Online Practice Stage
 
This is the song that is playing when you're waiting for an online match to start. It's played in the all-white version of Final Destination that is home to the infinitely-respawning Mr. Sandbags.
 
Acoustic guitar, standard tuning
 
 
               ~~~~~~~~~             ~~~~~~~~           ~~~~~~~~
e---------------------------------------------------------------
B---------------------------------------------------------------
G--/6---------------------------2h4-----------------2h4---------
D---------9-7-6----------/4--h6-----6--------/4--h6-----6-------
A---------------------------------------------------------------
E---------------------------------------------------------------
 
 
Ending 1
 
e-------------------------------
B-------------------------------
G-------------------------------
D-------------------/6----------
A---6-7-9---7-6-----------------
E---------------9---------------
 
 
Ending 2 
                *   ~~~~~~~~~
e-------------------------------
B-------------------------------
G-------------------------------
D-------------------------------
A---6-7-9---7-6/7---------------
E-------------------9-----------
 
LEGEND:
 
/ = slide up
~ = vibrato
* = quick slide
VGJam Tabs Super Smash Bros. Brawl - "Online practice stage"
Tabs database last modified Tuesday, 01-Nov-2016 19:14:53 UTC.
Copyright © 1999 - 2016 VideoGameJam.com. All rights reserved.