VGJam Tabs Portal
Portal
"Still Alive" - Guitar tab
Platform(s):Personal Computer / Macintosh
Composed by:Jonathan Coulton
Tabbed by:Deezer
Last modified:2012-12-25
Date added:2012-12-21
Print it:Original file (.TXT)
#----------------------------------PLEASE NOTE---------------------------------#
#This file is the author's own work and represents their interpretation of the #
#song. You may only use this file for private study, scholarship, or research. #
#------------------------------------------------------------------------------#


Portal (PC)
"Still Alive"

Originally composed by: Jonathan Coulton
------------------------------------------------------------------------------
Tabbed by: Deezer (deezer AT videogamejam DOT com)
For http://www.videogamejam.com
------------------------------------------------------------------------------

Legend:
  pm... = palm mute
  p     = pull-off
  /     = slide up
  x     = muted string

All guitars, standard tuning: (low to high) EADGBe

Guitar 1: Ukulele arranged for guitar. Sometimes doubled by another guitar.
Guitar 2: Acoustic guitar.
Guitar 3: Electric w/ distortion. Two guitars arranged for one.
Guitar 4: Plays behind the vocal line in the chorus.


========
Guitar 1
========

   (D)         (Bm)           (D)         (Bm)
||--------------------------|--------------------------|
||--------7-----------7-----|--------7-----------7-----|
||-----7-----7-----7-----7--|-----7-----7-----7-----7--|
||--7-----------9-----------|--7-----------9-----------|
||--------------------------|--------------------------|
||--------------------------|--------------------------|


 (D)         (Bm)           (D)         (Bm)
--------------------------|--------------------------|
--------7-----------7-----|--------7-----------7-----|
-----7-----7-----7-----7--|-----7-----7-----7-----7--|
--7-----------9-----------|--7-----------9-----------|
--------------------------|--------------------------|
--------------------------|--------------------------|


 (Em)                       (A7)
--------------------------|--------------------------|
--------8-----------8-----|--------8-----------8-----|
-----9-----9-----9-----9--|-----6-----6-----6-----6--|
--9-----------9-----------|--7-----------7-----------|
--------------------------|--------------------------|
--------------------------|--------------------------|


 (D)         (Bm)           (D)         (Bm)
--------------------------|--------------------------|
--------7-----------7-----|--------7-----------7-----|
-----7-----7-----7-----7--|-----7-----7-----7-----7--|
--7-----------9-----------|--7-----------9-----------|
--------------------------|--------------------------|
--------------------------|--------------------------|


 (D)         (Bm)           (D)         (Bm)
--------------------------|--------------------------|
--------7-----------7-----|--------7-----------7-----|
-----7-----7-----7-----7--|-----7-----7-----7-----7--|
--7-----------9-----------|--7-----------9-----------|
--------------------------|--------------------------|
--------------------------|--------------------------|


 (D)         (Bm)           (D)         (Bm)
--------------------------|--------------------------|
--------7-----------7-----|--------7-----------7-----|
-----7-----7-----7-----7--|-----7-----7-----7-----7--|
--7-----------9-----------|--7-----------9-----------|
--------------------------|--------------------------|
--------------------------|--------------------------|


 (Em)                       (A7)
--------------------------|--------------------------|
--------8-----------8-----|--------8-----------8-----|
-----9-----9-----9-----9--|-----6-----6-----6-----6--|
--9-----------9-----------|--7-----------7-----------|
--------------------------|--------------------------|
--------------------------|--------------------------|

 Riff A.....
 (Bbmaj7)                 F              C
-----------5-----------|-------------------------------|
--------6--------------|------10-------------8---------|
-----7-----------------|--10------10------9--9---9-----|
--8--------------------|--10------10-----10-----10-----|
-----------------------|---8-------8-----10-----10-----|
-----------------------|------------------8------8-----|


  Bb          F                                C
-----6-----------------------|-------------------------------|
------------------10---------|------10-------------8---------|
--7-----7--9--10------10-----|--10------10------9--9---9-----|
--8-----8-----10------10-----|--10------10-----10-----10-----|
--8-----8------8-------8-----|---8-------8-----10-----10-----|
--6-----6--------------------|------------------8------8-----|


  Bb          F                 Gm          C
-----6-----------------------|-----3-----3-----3-----3--|
------------------10---------|--3-----3-----5-----5-----|
--7-----7--9--10------10-----|--3-----3-----5-----5-----|
--8-----8-----10------10-----|--0-----0-----5-----5-----|
--8-----8------8-------8-----|--------------------------|
--6-----6--------------------|--------------------------|


  F               Dm             Bb6         A7
---------------------5-----5--|-----3-----3-----3-----3--|
------10------10--6-----6-----|--3-----3-----2-----2-----|
--10------10------7-----7-----|--3-----3-----2-----2-----|
--10------10------7-----7-----|--3-----3-----2-----2-----|
---8-------8------5-----5-----|--1-----1-----0-----0-----|
------------------------------|--------------------------|


 (D)         (Bm)           (D)         (Bm)
--------------------------|--------------------------|
--------7-----------7-----|--------7-----------7-----|
-----7-----7-----7-----7--|-----7-----7-----7-----7--|
--7-----------9-----------|--7-----------9-----------|
--------------------------|--------------------------|
--------------------------|--------------------------|


 (D)         (Bm)           (D)         (Bm)
--------------------------|--------------------------|
--------7-----------7-----|--------7-----------7-----|
-----7-----7-----7-----7--|-----7-----7-----7-----7--|
--7-----------9-----------|--7-----------9-----------|
--------------------------|--------------------------|
--------------------------|--------------------------|


 (D)         (Bm)           (D)         (Bm)
--------------------------|--------------------------|
--------7-----------7-----|--------7-----------7-----|
-----7-----7-----7-----7--|-----7-----7-----7-----7--|
--7-----------9-----------|--7-----------9-----------|
--------------------------|--------------------------|
--------------------------|--------------------------|


 (D)         (Bm)           (D)         (Bm)
--------------------------|--------------------------|
--------7-----------7-----|--------7-----------7-----|
-----7-----7-----7-----7--|-----7-----7-----7-----7--|
--7-----------9-----------|--7-----------9-----------|
--------------------------|--------------------------|
--------------------------|--------------------------|


 (Em)                       (A7)
--------------------------|--------------------------|
--------8-----------8-----|--------8-----------8-----|
-----9-----9-----9-----9--|-----6-----6-----6-----6--|
--9-----------9-----------|--7-----------7-----------|
--------------------------|--------------------------|
--------------------------|--------------------------|


 (D)         (Bm)           (D)         (Bm)
--------------------------|--------------------------|
--------7-----------7-----|--------7-----------7-----|
-----7-----7-----7-----7--|-----7-----7-----7-----7--|
--7-----------9-----------|--7-----------9-----------|
--------------------------|--------------------------|
--------------------------|--------------------------|


 (D)         (Bm)           (D)         (Bm)
--------------------------|--------------------------|
--------7-----------7-----|--------7-----------7-----|
-----7-----7-----7-----7--|-----7-----7-----7-----7--|
--7-----------9-----------|--7-----------9-----------|
--------------------------|--------------------------|
--------------------------|--------------------------|


 (D)         (Bm)           (D)         (Bm)
--------------------------|--------------------------|
--------7-----------7-----|--------7-----------7-----|
-----7-----7-----7-----7--|-----7-----7-----7-----7--|
--7-----------9-----------|--7-----------9-----------|
--------------------------|--------------------------|
--------------------------|--------------------------|


 (Em)                       (A7)
--------------------------|--------------------------|
--------8-----------8-----|--------8-----------8-----|
-----9-----9-----9-----9--|-----9-----9-----9-----9--|
--9-----------9-----------|--7-----------7-----------|
--------------------------|--------------------------|
--------------------------|--------------------------|


 (Bbmaj7)
---------------------------------|-----|-----|-----|-----|-----|-----|-----|
---------10------10------10------|-----|-----|-----|-----|-----|-----|-----|
-----10------10------10------10--|-----|-----|-----|-----|-----|-----|-----|
--8------------------------------|-----|-----|-----|-----|-----|-----|-----|
---------------------------------|-----|-----|-----|-----|-----|-----|-----|
---------------------------------|-----|-----|-----|-----|-----|-----|-----|
 * Played by the doubling guitar. Guitar 1 plays Riff A.

 (D)         (Bm)           (D)         (Bm)
--------------------------|--------------------------|
--------7-----------7-----|--------7-----------7-----|
-----7-----7-----7-----7--|-----7-----7-----7-----7--|
--7-----------9-----------|--7-----------9-----------|
--------------------------|--------------------------|
--------------------------|--------------------------|


 (D)         (Bm)           (D)         (Bm)
--------------------------|--------------------------|
--------7-----------7-----|--------7-----------7-----|
-----7-----7-----7-----7--|-----7-----7-----7-----7--|
--7-----------9-----------|--7-----------9-----------|
--------------------------|--------------------------|
--------------------------|--------------------------|


 (D)         (Bm)           (D)         (Bm)
--------------------------|--------------------------|
--------7-----------7-----|--------7-----------7-----|
-----7-----7-----7-----7--|-----7-----7-----7-----7--|
--7-----------9-----------|--7-----------9-----------|
--------------------------|--------------------------|
--------------------------|--------------------------|


 (D)         (Bm)           (D)         (Bm)
--------------------------|--------------------------|
--------7-----------7-----|--------7-----------7-----|
-----7-----7-----7-----7--|-----7-----7-----7-----7--|
--7-----------9-----------|--7-----------9-----------|
--------------------------|--------------------------|
--------------------------|--------------------------|


 (Em)                       (A7)
--------------------------|--------------------------|
--------8-----------8-----|--------8-----------8-----|
-----9-----9-----9-----9--|-----6-----6-----6-----6--|
--9-----------9-----------|--7-----------7-----------|
--------------------------|--------------------------|
--------------------------|--------------------------|


 (D)         (Bm)           (D)         (Bm)
--------------------------|--------------------------|
--------7-----------7-----|--------7-----------7-----|
-----7-----7-----7-----7--|-----7-----7-----7-----7--|
--7-----------9-----------|--7-----------9-----------|
--------------------------|--------------------------|
--------------------------|--------------------------|


 (D)         (Bm)           (D)         (Bm)
--------------------------|--------------------------|
--------7-----------7-----|--------7-----------7-----|
-----7-----7-----7-----7--|-----7-----7-----7-----7--|
--7-----------9-----------|--7-----------9-----------|
--------------------------|--------------------------|
--------------------------|--------------------------|


 (D)         (Bm)           (D)         (Bm)
--------------------------|--------------------------|
--------7-----------7-----|--------7-----------7-----|
-----7-----7-----7-----7--|-----7-----7-----7-----7--|
--7-----------9-----------|--7-----------9-----------|
--------------------------|--------------------------|
--------------------------|--------------------------|


 (Em)                       (A7)
--------------------------|--------------------------|
--------8-----------8-----|--------8-----------8-----|
-----9-----9-----9-----9--|-----9-----9-----9-----9--|
--9-----------9-----------|--7-----------7-----------|
--------------------------|--------------------------|
--------------------------|--------------------------|


 (Bbmaj7)
---------------------------------|-----|-----|-----|-----|-----|-----|-----|
---------10------10------10------|-----|-----|-----|-----|-----|-----|-----|
-----10------10------10------10--|-----|-----|-----|-----|-----|-----|-----|
--8------------------------------|-----|-----|-----|-----|-----|-----|-----|
---------------------------------|-----|-----|-----|-----|-----|-----|-----|
---------------------------------|-----|-----|-----|-----|-----|-----|-----|
 * Played by the doubling guitar. Guitar 1 plays Riff A.

 (D)         (Bm)           (D)         (Bm)
--------------------------|--------------------------|
--------7-----------7-----|--------7-----------7-----|
-----7-----7-----7-----7--|-----7-----7-----7-----7--|
--7-----------9-----------|--7-----------9-----------|
--------------------------|--------------------------|
--------------------------|--------------------------|


 (D)         (Bm)           (D)         (Bm)
--------------------------|--------------------------|
--------7-----------7-----|--------7-----------7-----|
-----7-----7-----7-----7--|-----7-----7-----7-----7--|
--7-----------9-----------|--7-----------9-----------|
--------------------------|--------------------------|
--------------------------|--------------------------|


 (D)         (Bm)           (D)         (Bm)
--------------------------|--------------------------|
--------7-----------7-----|--------7-----------7-----|
-----7-----7-----7-----7--|-----7-----7-----7-----7--|
--7-----------9-----------|--7-----------9-----------|
--------------------------|--------------------------|
--------------------------|--------------------------|


 (D)         (Bm)           (D)         (Bm)
--------------------------|--------------------------|
--------7-----------7-----|--------7-----------7-----|
-----7-----7-----7-----7--|-----7-----7-----7-----7--|
--7-----------9-----------|--7-----------9-----------|
--------------------------|--------------------------|
--------------------------|--------------------------|


 (D)         (Bm)           (D)         (Bm)
--------------------------|--------------------------|
--------7-----------7-----|--------7-----------7-----|
-----7-----7-----7-----7--|-----7-----7-----7-----7--|
--7-----------9-----------|--7-----------9-----------|
--------------------------|--------------------------|
--------------------------|--------------------------|


 (D)         (Bm)           (D)         (Bm)
--------------------------|--------------------------||
--------7-----------7-----|--------7-----------7-----||
-----7-----7-----7-----7--|-----7-----7-----7-----7--||
--7-----------9-----------|--7-----------9-----------||
--------------------------|--------------------------||
--------------------------|--------------------------||


========
Guitar 2
========

||-------|-------|-------|-------|-------|-------|-------|-------|
||-------|-------|-------|-------|-------|-------|-------|-------|
||-------|-------|-------|-------|-------|-------|-------|-------|
||-------|-------|-------|-------|-------|-------|-------|-------|
||-------|-------|-------|-------|-------|-------|-------|-------|
||-------|-------|-------|-------|-------|-------|-------|-------|


-------|-------|-------|-------|-------|-------|-------|-------|
-------|-------|-------|-------|-------|-------|-------|-------|
-------|-------|-------|-------|-------|-------|-------|-------|
-------|-------|-------|-------|-------|-------|-------|-------|
-------|-------|-------|-------|-------|-------|-------|-------|
-------|-------|-------|-------|-------|-------|-------|-------|


-------|-------|-------|-------|-------|-------|
-------|-------|-------|-------|-------|-------|
-------|-------|-------|-------|-------|-------|
-------|-------|-------|-------|-------|-------|
-------|-------|-------|-------|-------|-------|
-------|-------|-------|-------|-------|-------|


  D5   D      Dsus4 D5         D      Dsus4 D5
-------2-------3p2-----|-------2-------3p2-----|
--3----3-------3----3--|--3----3-------3----3--|
--2----2----2--2----2--|--2----2----2--2----2--|
--0----0----0--0----0--|--0----0----0--0----0--|
-----------------------|-----------------------|
-----------------------|-----------------------|


  D5   D      Dsus4 D5         D      Dsus4 D5
-------2-------3p2-----|-------2-------3p2-----|
--3----3-------3----3--|--3----3-------3----3--|
--2----2----2--2----2--|--2----2----2--2----2--|
--0----0----0--0----0--|--0----0----0--0----0--|
-----------------------|-----------------------|
-----------------------|-----------------------|


  D5   D      Dsus4 D5         D      Dsus4 D5
-------2-------3p2-----|-------2-------3p2-----|
--3----3-------3----3--|--3----3-------3----3--|
--2----2----2--2----2--|--2----2----2--2----2--|
--0----0----0--0----0--|--0----0----0--0----0--|
-----------------------|-----------------------|
-----------------------|-----------------------|


  D5   D      Dsus4 D5         D      Dsus4 D5
-------2-------3p2-----|-------2-------3p2-----|
--3----3-------3----3--|--3----3-------3----3--|
--2----2----2--2----2--|--2----2----2--2----2--|
--0----0----0--0----0--|--0----0----0--0----0--|
-----------------------|-----------------------|
-----------------------|-----------------------|


  Em7                      A7sus4
-------0-------0--0--0--|-------0-------0--0--0--|
-------3-------3--3--3--|-------3-------3--3--3--|
--0----0----0--0--0--0--|--0----0----0--0--0--0--|
--2----2----2--2--2--2--|--2----2----2--2--2--2--|
--2----2----2--2--2--2--|--0----0----0--0--0--0--|
--0----0----0--0--0--0--|------------------------|


  D5   D      Dsus4 D5         D      Dsus4 D5
-------2-------3p2-----|-------2-------3p2-----|
--3----3-------3----3--|--3----3-------3----3--|
--2----2----2--2----2--|--2----2----2--2----2--|
--0----0----0--0----0--|--0----0----0--0----0--|
-----------------------|-----------------------|
-----------------------|-----------------------|


  D5   D      Dsus4 D5         D      Dsus4 D5
-------2-------3p2-----|-------2-------3p2-----|
--3----3-------3----3--|--3----3-------3----3--|
--2----2----2--2----2--|--2----2----2--2----2--|
--0----0----0--0----0--|--0----0----0--0----0--|
-----------------------|-----------------------|
-----------------------|-----------------------|


  D5   D      Dsus4 D5         D      Dsus4 D5
-------2-------3p2-----|-------2-------3p2-----|
--3----3-------3----3--|--3----3-------3----3--|
--2----2----2--2----2--|--2----2----2--2----2--|
--0----0----0--0----0--|--0----0----0--0----0--|
-----------------------|-----------------------|
-----------------------|-----------------------|


  Em7                      A7sus4
-------0-------0--0--0--|-------0-------0--0--0--|
-------3-------3--3--3--|-------3-------3--3--3--|
--0----0----0--0--0--0--|--0----0----0--0--0--0--|
--2----2----2--2--2--2--|--2----2----2--2--2--2--|
--2----2----2--2--2--2--|--0----0----0--0--0--0--|
--0----0----0--0--0--0--|------------------------|


  Bb                        F          C
--1----1--1--1--1--1--1--|------------------------|
--3----3--3--3--3--3--3--|-------------1----1-----|
--3----3--3--3--3--3--3--|--2----2--0--0----0-----|
--3----3--3--3--3--3--3--|--3----3-----2----2--0--|
--1----1--1--1--1--1--1--|--3----3-----3----3--0--|
-------------------------|--1----1----------------|


  Bb         F                        C
------------------------|------------------------|
--3----3----------------|-------------1----1-----|
--3----3-----2----2-----|--2----2--0--0----0-----|
--3----3--0--3----3--3--|--3----3-----2----2--0--|
--1----1--0--3----3--3--|--3----3-----3----3--0--|
-------------1----1--1--|--1----1----------------|


  Bb         F             Gm         C
------------------------|------------------------|
--3----3----------------|--3----3-----1----1-----|
--3----3-----2----2-----|--3----3-----0----0-----|
--3----3--0--3----3--0--|--5----5--0--2----2--0--|
--1----1--0--3----3-----|--5----5-----3----3--0--|
-------------1----1-----|--3----3----------------|


  F    C    Dm            Bb         A
------------1----1-----|------------------------|
-------1----3----3-----|--3----3-----2----2-----|
--2----0----2----2--0--|--3----3--0--2----2--0--|
--3----2----0----0--0--|--3----3--0--2----2--0--|
--3----3---------------|--1----1-----0----0-----|
--1--------------------|------------------------|


  D5   D      Dsus4 D5         D      Dsus4 D5
-------2-------3p2-----|-------2-------3p2-----|
--3----3-------3----3--|--3----3-------3----3--|
--2----2----2--2----2--|--2----2----2--2----2--|
--0----0----0--0----0--|--0----0----0--0----0--|
-----------------------|-----------------------|
-----------------------|-----------------------|


  D5   D      Dsus4 D5         D      Dsus4 D5
-------2-------3p2-----|-------2-------3p2-----|
--3----3-------3----3--|--3----3-------3----3--|
--2----2----2--2----2--|--2----2----2--2----2--|
--0----0----0--0----0--|--0----0----0--0----0--|
-----------------------|-----------------------|
-----------------------|-----------------------|


-------|-------|-------|-------|-------|-------|-------|-------|
-------|-------|-------|-------|-------|-------|-------|-------|
-------|-------|-------|-------|-------|-------|-------|-------|
-------|-------|-------|-------|-------|-------|-------|-------|
-------|-------|-------|-------|-------|-------|-------|-------|
-------|-------|-------|-------|-------|-------|-------|-------|


  D5   D      Dsus4 D5         D      Dsus4 D5
-------2-------3p2-----|-------2-------3p2-----|
--3----3-------3----3--|--3----3-------3----3--|
--2----2----2--2----2--|--2----2----2--2----2--|
--0----0----0--0----0--|--0----0----0--0----0--|
-----------------------|-----------------------|
-----------------------|-----------------------|


  D5   D      Dsus4 D5         D      Dsus4 D5
-------2-------3p2-----|-------2-------3p2-----|
--3----3-------3----3--|--3----3-------3----3--|
--2----2----2--2----2--|--2----2----2--2----2--|
--0----0----0--0----0--|--0----0----0--0----0--|
-----------------------|-----------------------|
-----------------------|-----------------------|


  Em7                      A7sus4
-------0-------0--0--0--|-------0-------0--0--0--|
-------3-------3--3--3--|-------3-------3--3--3--|
--0----0----0--0--0--0--|--0----0----0--0--0--0--|
--2----2----2--2--2--2--|--2----2----2--2--2--2--|
--2----2----2--2--2--2--|--0----0----0--0--0--0--|
--0----0----0--0--0--0--|------------------------|


  Bb                        F          C
--1----1--1--1--1--1--1--|------------------------|
--3----3--3--3--3--3--3--|-------------1----1-----|
--3----3--3--3--3--3--3--|--2----2--0--0----0-----|
--3----3--3--3--3--3--3--|--3----3-----2----2--0--|
--1----1--1--1--1--1--1--|--3----3-----3----3--0--|
-------------------------|--1----1----------------|


  Bb         F                        C
------------------------|------------------------|
--3----3----------------|-------------1----1-----|
--3----3-----2----2-----|--2----2--0--0----0-----|
--3----3--0--3----3--3--|--3----3-----2----2--0--|
--1----1--0--3----3--3--|--3----3-----3----3--0--|
-------------1----1--1--|--1----1----------------|


  Bb         F             Gm         C
------------------------|------------------------|
--3----3----------------|--3----3-----1----1-----|
--3----3-----2----2-----|--3----3-----0----0-----|
--3----3--0--3----3--0--|--5----5--0--2----2--0--|
--1----1--0--3----3-----|--5----5-----3----3--0--|
-------------1----1-----|--3----3----------------|


  F    C    Dm            Bb         A
------------1----1-----|------------------------|
-------1----3----3-----|--3----3-----2----2-----|
--2----0----2----2--0--|--3----3--0--2----2--0--|
--3----2----0----0--0--|--3----3--0--2----2--0--|
--3----3---------------|--1----1-----0----0-----|
--1--------------------|------------------------|


  D5   D      Dsus4 D5         D      Dsus4 D5
-------2-------3p2-----|-------2-------3p2-----|
--3----3-------3----3--|--3----3-------3----3--|
--2----2----2--2----2--|--2----2----2--2----2--|
--0----0----0--0----0--|--0----0----0--0----0--|
-----------------------|-----------------------|
-----------------------|-----------------------|


  D5   D      Dsus4 D5         D      Dsus4 D5
-------2-------3p2-----|-------2-------3p2-----|
--3----3-------3----3--|--3----3-------3----3--|
--2----2----2--2----2--|--2----2----2--2----2--|
--0----0----0--0----0--|--0----0----0--0----0--|
-----------------------|-----------------------|
-----------------------|-----------------------|


  D5   D      Dsus4 D5         D      Dsus4 D5
-------2-------3p2-----|-------2-------3p2-----|
--3----3-------3----3--|--3----3-------3----3--|
--2----2----2--2----2--|--2----2----2--2----2--|
--0----0----0--0----0--|--0----0----0--0----0--|
-----------------------|-----------------------|
-----------------------|-----------------------|


  D5   D      Dsus4 D5         D      Dsus4 D5
-------2-------3p2-----|-------2-------3p2-----|
--3----3-------3----3--|--3----3-------3----3--|
--2----2----2--2----2--|--2----2----2--2----2--|
--0----0----0--0----0--|--0----0----0--0----0--|
-----------------------|-----------------------|
-----------------------|-----------------------|


  D5   D      Dsus4 D5         D      Dsus4 D5
-------2-------3p2-----|-------2-------3p2-----|
--3----3-------3----3--|--3----3-------3----3--|
--2----2----2--2----2--|--2----2----2--2----2--|
--0----0----0--0----0--|--0----0----0--0----0--|
-----------------------|-----------------------|
-----------------------|-----------------------|


  D5   D      Dsus4 D5         D      Dsus4 D5
-------2-------3p2-----|-------2-------3p2-----||
--3----3-------3----3--|--3----3-------3----3--||
--2----2----2--2----2--|--2----2----2--2----2--||
--0----0----0--0----0--|--0----0----0--0----0--||
-----------------------|-----------------------||
-----------------------|-----------------------||


========
Guitar 3
========

||-------|-------|-------|-------|-------|-------|-------|-------|
||-------|-------|-------|-------|-------|-------|-------|-------|
||-------|-------|-------|-------|-------|-------|-------|-------|
||-------|-------|-------|-------|-------|-------|-------|-------|
||-------|-------|-------|-------|-------|-------|-------|-------|
||-------|-------|-------|-------|-------|-------|-------|-------|


-------|-------|-------|-------|-------|-------|-------|-------|-------|
-------|-------|-------|-------|-------|-------|-------|-------|-------|
-------|-------|-------|-------|-------|-------|-------|-------|-------|
-------|-------|-------|-------|-------|-------|-------|-------|-------|
-------|-------|-------|-------|-------|-------|-------|-------|-------|
-------|-------|-------|-------|-------|-------|-------|-------|-------|


-------|-------|-------|-------|-------|-------|-------|-------|-------|
-------|-------|-------|-------|-------|-------|-------|-------|-------|
-------|-------|-------|-------|-------|-------|-------|-------|-------|
-------|-------|-------|-------|-------|-------|-------|-------|-------|
-------|-------|-------|-------|-------|-------|-------|-------|-------|
-------|-------|-------|-------|-------|-------|-------|-------|-------|


-------|-------|-------|-------|-------|-------|-------|-------|-------|
-------|-------|-------|-------|-------|-------|-------|-------|-------|
-------|-------|-------|-------|-------|-------|-------|-------|-------|
-------|-------|-------|-------|-------|-------|-------|-------|-------|
-------|-------|-------|-------|-------|-------|-------|-------|-------|
-------|-------|-------|-------|-------|-------|-------|-------|-------|


                                               Bb5
-------|-------|-------|-------|-------|-------------------------|
-------|-------|-------|-------|-------|-------------------------|
-------|-------|-------|-------|-------|-------3--3--3--3--3-----|
-------|-------|-------|-------|-------|-------3--3--3--3--3-----|
-------|-------|-------|-------|-------|-------1--1--1--1--1-----|
-------|-------|-------|-------|-------|----------------------0--|
                                               pm...........

  F5         C5            Bb5        F5
------------------------|------------------------|
------------------------|------------------------|
-------------5----------|--3---------------------|
--3----------5----------|--3----------3----------|
--3----------3----x--0--|--1----x-----3----------|
--1----x--0-------------|----------0--1----x--1--|
          pm         pm            pm         pm

  F5         C5            Bb5        F5
------------------------|------------------------|
------------------------|------------------------|
-------------5----------|--3---------------------|
--3----------5----------|--3----------3----------|
--3----------3----x--0--|--1----x-----3----------|
--1----x--0-------------|----------0--1----x--0--|
          pm         pm            pm         pm

  Gm           C               F          Dm
----------------------------|--------------------------|
--3----3-------5----5-------|-------------6----6-------|
--3----3-------5----5-------|-------2-----7----7-------|
--5----5-------5----5-------|--3----3-----7----7--0-0--|
--5----5--5-5--3----3-------|--3----3----/5----5-------|
--3----3--3-3----------0-0--|--1----1------------------|
          pm..         pm..
		  
   Bb         A               D                           Dsus4 (D)
---------------------------|--2----------------|-----------3----2---------|
---------------------------|--3----------------|-----------3---------3----|
---7----7-----6----6-------|--2----------------|-----------2--------------|
---8----8-----7----7-------|--0----------------|-----------0--------------|
---8----8-----7----7--0-0--|-------------------|--------------------------|
--/6----6--0--5----5-------|-------------------|--------------------------|



                               Bm                D
-------------------|--------------------------|--2----------------|
-------------------|----------------3---------|--3----------------|
--2----------------|-----------4----4---------|--2----------------|
-------------------|-----------4--------------|--0----------------|
-------------------|-----------2---------0----|-------------------|
-------------------|--------------------------|-------------------|



-------------------|-------------------|-----------|-----------|
-------------------|-------------------|-----------|-----------|
-------------------|-------------------|-----------|-----------|
-------------------|-------------------|-----------|-----------|
-------------------|-------------------|-----------|-----------|
-------------------|-------------------|-----------|-----------|


-----------|-----------|-----------|-----------|-----------|-----------|
-----------|-----------|-----------|-----------|-----------|-----------|
-----------|-----------|-----------|-----------|-----------|-----------|
-----------|-----------|-----------|-----------|-----------|-----------|
-----------|-----------|-----------|-----------|-----------|-----------|
-----------|-----------|-----------|-----------|-----------|-----------|


                                           Bb5
-----------|-----------|-----------|-------------------------|
-----------|-----------|-----------|-------------------------|
-----------|-----------|-----------|-------3--3--3--3--3-----|
-----------|-----------|-----------|-------3--3--3--3--3-----|
-----------|-----------|-----------|-------1--1--1--1--1-----|
-----------|-----------|-----------|----------------------0--|
                                           pm...........


  F5         C5            Bb5        F5
------------------------|------------------------|
------------------------|------------------------|
-------------5----------|--3---------------------|
--3----------5----------|--3----------3----------|
--3----------3----x--0--|--1----x-----3----------|
--1----x--0-------------|----------0--1----x--1--|
          pm         pm            pm         pm

  F5         C5            Bb5        F5
------------------------|------------------------|
------------------------|------------------------|
-------------5----------|--3---------------------|
--3----------5----------|--3----------3----------|
--3----------3----x--0--|--1----x-----3----------|
--1----x--0-------------|----------0--1----x--0--|
          pm         pm            pm         pm

  Gm           C               F          Dm
----------------------------|--------------------------|
--3----3-------5----5-------|-------------6----6-------|
--3----3-------5----5-------|-------2-----7----7-------|
--5----5-------5----5-------|--3----3-----7----7--0-0--|
--5----5--5-5--3----3-------|--3----3----/5----5-------|
--3----3--3-3----------0-0--|--1----1------------------|
          pm..         pm..
		  
   Bb         A               D                           Dsus4 (D)
---------------------------|--2----------------|-----------3----2---------|
---------------------------|--3----------------|-----------3---------3----|
---7----7-----6----6-------|--2----------------|-----------2--------------|
---8----8-----7----7-------|--0----------------|-----------0--------------|
---8----8-----7----7--0-0--|-------------------|--------------------------|
--/6----6--0--5----5-------|-------------------|--------------------------|



                               Bm                D
-------------------|--------------------------|--2----------------|
-------------------|----------------3---------|--3----------------|
--2----------------|-----------4----4---------|--2----------------|
-------------------|-----------4--------------|--0----------------|
-------------------|-----------2---------0----|-------------------|
-------------------|--------------------------|-------------------|


          Dsus4 (D)
-----------3----2---------|-------------------|
-----------3---------3----|-------------------|
-----------2--------------|--2----------------|
-----------0--------------|-------------------|
--------------------------|-------------------|
--------------------------|-------------------|


           Bm                D5
--------------------------|-------------------|-------------------|
----------------3---------|--3----------------|-------------------|
-----------4----4---------|--2----------------|-------------------|
-----------4--------------|--0----------------|-------------------|
-----------2---------0----|-------------------|-------------------|
--------------------------|-------------------|-------------------|


-------------------|-------------------||
-------------------|-------------------||
-------------------|-------------------||
-------------------|-------------------||
-------------------|-------------------||
-------------------|-------------------||


========
Guitar 4
========

||-------|-------|-------|-------|-------|-------|-------|-------|
||-------|-------|-------|-------|-------|-------|-------|-------|
||-------|-------|-------|-------|-------|-------|-------|-------|
||-------|-------|-------|-------|-------|-------|-------|-------|
||-------|-------|-------|-------|-------|-------|-------|-------|
||-------|-------|-------|-------|-------|-------|-------|-------|


-------|-------|-------|-------|-------|-------|-------|-------|-------|
-------|-------|-------|-------|-------|-------|-------|-------|-------|
-------|-------|-------|-------|-------|-------|-------|-------|-------|
-------|-------|-------|-------|-------|-------|-------|-------|-------|
-------|-------|-------|-------|-------|-------|-------|-------|-------|
-------|-------|-------|-------|-------|-------|-------|-------|-------|


-------|-------|-------|-------|-------|-------|-------|-------|-------|
-------|-------|-------|-------|-------|-------|-------|-------|-------|
-------|-------|-------|-------|-------|-------|-------|-------|-------|
-------|-------|-------|-------|-------|-------|-------|-------|-------|
-------|-------|-------|-------|-------|-------|-------|-------|-------|
-------|-------|-------|-------|-------|-------|-------|-------|-------|


-------|-------|-------|-------|-------|-------|-------|-------|-------|
-------|-------|-------|-------|-------|-------|-------|-------|-------|
-------|-------|-------|-------|-------|-------|-------|-------|-------|
-------|-------|-------|-------|-------|-------|-------|-------|-------|
-------|-------|-------|-------|-------|-------|-------|-------|-------|
-------|-------|-------|-------|-------|-------|-------|-------|-------|


-------|-------|-------|-------|-------|-------------------------|
-------|-------|-------|-------|-------|-------------------------|
-------|-------|-------|-------|-------|-----------------10--12--|
-------|-------|-------|-------|-------|-------------------------|
-------|-------|-------|-------|-------|-------------------------|
-------|-------|-------|-------|-------|-------------------------|


----------------------------|----------------------------|
--10----13----13----11--10--|--11--10--------------------|
----------------------------|--------------------12--10--|
----------------------------|----------------------------|
----------------------------|----------------------------|
----------------------------|----------------------------|

------------------------------|----------------------------|
-------/10----11--10----------|----------10--------11--13--|
--10------------------12--10--|------12--------------------|
------------------------------|----------------------------|
------------------------------|----------------------------|
------------------------------|----------------------------|


--10------------------------|----------------------------|
--------13----13----10--11--|--13----11----10------------|
----------------------------|--------------------12--10--|
----------------------------|----------------------------|
----------------------------|----------------------------|
----------------------------|----------------------------|


------------------------------|--------------------|--------------------|
-------/10------------10--10--|--------------------|--------------------|
--10--------12----------------|--------------------|--------------------|
------------------------------|--------------------|--------------------|
------------------------------|--------------------|--------------------|
------------------------------|--------------------|--------------------|


--------------------|-------|-------|-------|-------|-------|-------|
--------------------|-------|-------|-------|-------|-------|-------|
--------------------|-------|-------|-------|-------|-------|-------|
--------------------|-------|-------|-------|-------|-------|-------|
--------------------|-------|-------|-------|-------|-------|-------|
--------------------|-------|-------|-------|-------|-------|-------|


-------|-------|-------|-------|-------|-------|-------|-------|-------|
-------|-------|-------|-------|-------|-------|-------|-------|-------|
-------|-------|-------|-------|-------|-------|-------|-------|-------|
-------|-------|-------|-------|-------|-------|-------|-------|-------|
-------|-------|-------|-------|-------|-------|-------|-------|-------|
-------|-------|-------|-------|-------|-------|-------|-------|-------|


-------------------------|----------------------------|
-------------------------|--10----13----13----11--10--|
-----------------10--12--|----------------------------|
-------------------------|----------------------------|
-------------------------|----------------------------|
-------------------------|----------------------------|


----------------------------|------------------------------|
--11--10--------------------|-------/10----11--10----------|
--------------------12--10--|--10------------------12--10--|
----------------------------|------------------------------|
----------------------------|------------------------------|
----------------------------|------------------------------|


----------------------------|--10------------------------|
----------10--------11--13--|--------13----13----10--11--|
------12--------------------|----------------------------|
----------------------------|----------------------------|
----------------------------|----------------------------|
----------------------------|----------------------------|


----------------------------|------------------------------|
--13----11----10------------|-------/10------------10--10--|
--------------------12--10--|--10--------12----------------|
----------------------------|------------------------------|
----------------------------|------------------------------|
----------------------------|------------------------------|


--------------------|--------------------|--------------------|-------|
--------------------|--------------------|--------------------|-------|
--------------------|--------------------|--------------------|-------|
--------------------|--------------------|--------------------|-------|
--------------------|--------------------|--------------------|-------|
--------------------|--------------------|--------------------|-------|


-------|-------|-------|-------|-------|-------|-------|-------||
-------|-------|-------|-------|-------|-------|-------|-------||
-------|-------|-------|-------|-------|-------|-------|-------||
-------|-------|-------|-------|-------|-------|-------|-------||
-------|-------|-------|-------|-------|-------|-------|-------||
-------|-------|-------|-------|-------|-------|-------|-------||


Revision history:
2012-12-18: Version 1.
2012-12-25: Added missing G minor chord labels for Guitar 2.

VGJam Tabs Portal - "Still Alive"
Tabs database last modified Tuesday, 01-Nov-2016 19:14:53 UTC.
Copyright © 1999 - 2016 VideoGameJam.com. All rights reserved.